Oops, an error
Loading. Please wait.

Ausencia tab

105 views 3 this week
no commentswrite comment
1 2 3 4 5
3 more votes to show rating
add to favorites
×
Save as Personal and add changes to this tab that will be seen only by you. Learn more ›
×
You can save this tab as Personal to edit and correct it or add notes. All changes will be seen only by you. Learn more »
launch autoscroll
font size
0
reset
how to read this tab
guitar tuner
edit
Autoscroll
slow
fast
+/-
esc
set tempo
stop
(Cejillo en primer traste)

Intro:

      SOL        DO    RE     DO
      ^     ^    ^     ^      ^     ^
E||---3-----3----0-----2|-----3-----3---------|
B||---0-----0----1-----3|-----0-----0---------|
G||---0-----0----0-0---2|-2---0-----0---------|
D||---0-0---0-0--2-2-0-0|-0---0-0---0-0-------|
A||--(2)2--(2)-3(3)-----|----(2)2--(2)2-------|
E||-3-----3-------------|---3-----3-----3...--|

SOL
Cómo se han ido volando, ingrato

DO
las raudas horas de un tiempo cruel

RE                      -SOL
hoy de ti lejos y en otro campo

E||---------------------|---------------------|
B||---------------------|---------------------|
G||---------------------|---------------------|
D||-----------------0---|---------------------|
A||-2-2--2----2--2------|-3---0---------------|
E||---------------------|----------3----------|
    y de ti_a-mi-go tan   cer-ca_a-yer

        SI7              MIm
ayer tu mano sentí en la mía

        SI7             MIm
con ardorosa y grata presión

           *Sus
           RE               SOL
hoy en los ayes de ardiente brisa

E||---------------------|---------------------|
B||---------------------|---------------------|
G||---------------------|---------------------|
D||---------------0-----|---------------------|
A||-2-2---2-2-2------3--|-0-------------------|
E||---------------------|----3----------------|
    a tus o-í-dos ir-á    mi voz

E||---------------------|---------------------|
B||---------------------|---------------------|
G||---------------------|---------------------|
D||---------------------|----0----------------|
A||-2---2---2-----2---2-|--------3-----0------|
E||---------------------|-----------------3---|
    por-que la_au-sen-cia_es tan cruel do-lor.


Puente
     SOL              DO       RE          SOL
      ^                    ^                ^
E||---3---------3-------|--0---------2------3-|---------------------|
B||---0-------0---0-----|--1-------3---3----0-|---------------------|
G||---0-----0-------0---|--0-0---2-------2--0-|---------------------|
D||---0-0---------------|--2-2-0------------0-|-0-------------------|
A||--(2)2-------------3-|-(3)-----------------|-2-------------------|
E||-3-----3-------------|------------------3--|---3...--------------|


Cuando la noche su manto lóbrego
tienda en el valle y en la ciudad
pláceme, amigo, con tus recuerdos
pasar mis horas de soledad
y en cada estrella que centelleante
y que en el cielo veo lucir
parece, amigo, mirar tus ojos
que sonriendo me están a mi
tal vez sí loca, más cuán feliz.

Ya no sé, amigo, vivir alegre
como en un tiempo que ya se fue
tu amor ausente me tiene triste
nunca olvides quien te quiso bien
si acaso olvidas a quien te adora
a quien un día el alma te dio
mañana acaso lánguida y mustia
sobre su tallo muera una flor
y su perfume no vuelva, no.

            
            
Suggest correction
Creating personal tab
Creating personal tab
You can edit any tab online and save it as your Personal.

You can edit, replace or remove any tab part or add personal notes – all changes will be seen only by you.

Personal tabs can be accessed anytime from any device, even offline.
Learn more »
Give kudos to tab author, rate the tab!
1 2 3 4 5
comments
print report bad tab
guest
Wanna post a correction for this tab? Suggest correction