Oops, an error
Loading. Please wait.

Que Pena Siente El Alma tab

version 2
version 2

Whole song

218 views 1 this week
no commentswrite comment
1 2 3 4 5
3 more votes to show rating
add to favorites
×
Save as Personal and add changes to this tab that will be seen only by you. Learn more ›
×
You can save this tab as Personal to edit and correct it or add notes. All changes will be seen only by you. Learn more »
launch autoscroll
font size
0
reset
how to read this tab
guitar tuner
edit
Autoscroll
slow
fast
+/-
esc
set tempo
stop
Que pena siente el alma
Violeta Parra

Intro:

                   LA                      MI7            MI*                                                 LA
E---------------||-----------|-----------|-----------|-----------------|--2-----4--|--5-----4--|--2--------|--0--4/--|--
B-.-----2----2--||--2--------|-----0--2--|--3/-------|-------/5-----5--|-----------|-----------|--------5--|-----5/--|--
G----2-----2----||-----2-----|--2--------|-----1-----|-----4-----4-----|-----4-----|-----4-----|-----4-----|---------|--
D---------------||--------2--|-----------|--------2--|-----------------|-----------|-----------|-----------|---------|--
A---------------||--0--------|-----------|-----------|-----------------|-----------|-----------|-----------|--0------|--
E---------------||-----------|-----------|--0--------|--0--------------|--0--------|--0--------|--0--------|---------|--


                                     RE          LA          MI          LA*               (de aqui en ad. se repite)
E--/5--5-----|--7--5--|--4--4-----|--2--2-----|--0--------|-----------|-----------|--5--------||-----------|-----------|
B--/7--7-----|--9--7--|--5--5-----|--3--3-----|--2-----2--|--3-----0--|--------5--|--------2--||--2--------|-----0--2--|
G------------|--------|-----------|-----------|--2--2-----|--1--1-----|-----6-----|-----------||-----2-----|--2--------|
D------------|--------|-----------|--0-----0--|-----------|-----------|--7--------|-----------||--------2--|-----------|
A---0-----0--|--------|-----------|-----------|--0--------|-----------|-----------|-----------||--0--------|-----------|
E------------|--0-----|--0-----0--|-----------|-----------|--0--------|--5--------|-----------||-----------|-----------|


LA                   MI
que pena siente el alma
                   LA
cuando la suerte impía
                 RE
se opone a los deseos
       LA      MI  LA
que anhela el corazón


que amargas son las horas
de la existencia mía
sin olvidar tus ojos
sin escuchar tu voz


y sin embargo a veces
la sombra de la duda
que por mi mente pasa
como fatal visión.

. = (SILENCIO 1/2 TIEMPO)
|Toda la cancion se toca segun la intro:|

            
            
Suggest correction
Creating personal tab
Creating personal tab
You can edit any tab online and save it as your Personal.

You can edit, replace or remove any tab part or add personal notes – all changes will be seen only by you.

Personal tabs can be accessed anytime from any device, even offline.
Learn more »
Give kudos to tab author, rate the tab!
1 2 3 4 5
comments
print report bad tab
guest
Wanna post a correction for this tab? Suggest correction