Oops, an error
Loading. Please wait.

Ballad Of The Man bass

381 views 1 this week
1 commentread comment
1 2 3 4 5
2 more votes to show rating
add to favorites
×
Save as Personal and add changes to this tab that will be seen only by you. Learn more ›
×
You can save this tab as Personal to edit and correct it or add notes. All changes will be seen only by you. Learn more »
launch autoscroll
font size
0
reset
guitar tuner
edit
Autoscroll
slow
fast
+/-
esc
set tempo
stop
Author
Difficulty
Virgin Prunes - Ballad of the Man
Standard Tuning: EADG

Intro/Chorus - X1 for Intro
E----------3--0-3--0-0-|
A--5--0-5-0------------|
D----------------------|
G----------------------|

Verse
E----------3-35-555-|
A--5-555575---------|
D-------------------|
G-------------------|

Chrous X2


Tabbed by Zombone (skeletal_division@yahoo.com)

            
            
Suggest correction
Creating personal tab
Creating personal tab
You can edit any tab online and save it as your Personal.

You can edit, replace or remove any tab part or add personal notes – all changes will be seen only by you.

Personal tabs can be accessed anytime from any device, even offline.
Learn more »
Give kudos to tab author, rate the tab!
1 2 3 4 5
comments
print report bad tab
1 comment total.
0 reply
Havok337 417 Mar 05, 2014 07:49 PM

Seems correct, or at least pretty close to me. However, for those like me who are struggling with the tab being upside down, here it is re-written in the more typical manner:

G|-------------------------|
D|-------------------------|
A|---5--0-5-0--------------|
E|-----------3--0-3--0-0---|

G|----------------------|
D|----------------------|
A|---5-555575-----------|
E|-----------3-35-555---|

guest
You may want to rate the tab now too:
select rating
Wanna post a correction for this tab? Suggest correction