Oops, an error
Loading. Please wait.

El Probador tab

version 1
version 1

Whole song

Interactive

by Virus
74 views 1 this week
no commentswrite comment
1 2 3 4 5
3 more votes to show rating
add to favorites
×
Save as Personal and add changes to this tab that will be seen only by you. Learn more ›
×
You can save this tab as Personal to edit and correct it or add notes. All changes will be seen only by you. Learn more »
launch autoscroll
font size
0
reset
how to read this tab
guitar tuner
edit
Autoscroll
slow
fast
+/-
esc
set tempo
stop
Esta transcripción incluye los riff y la intro ?suena bastante parecido ?
los acordes haganlos todos en cejillas q suena mejor con distorsión y así es la origi
 y cualkier cosa escriban a mpayva@


Intro:
-------------------------------------------------------------------
-----8--------8-----8-8-8-10-8-----8-------------------------------
---------9------9---------------9----------------------------------  4 veces
-----------------------------------------------2-----2-------------
--------------------------------------3---5----0-----3-------------
--------------------------------------1---3------------------------


LAm7            LAm7-FA         REm Em    LAm7
Entró al probador y agarro la minifalda
luego la calzó y después giró la espalda
llamó al vendedor quizó que le dé un consejo
quería saber si el cuero era viejo.

Intro x2

REm            FA
El muchacho no pudo pensar
       DO              MI
comenzo a transpirar se le iba a dar
REm             FA
Ella vio una adecuada reacción
       DO
y arrastro al vendedor
              LAm7
dentro del probador.


Riff ----------------------------------
     ----------------------------------
     ----------------------------------
     -------3-3-3-2--------------------
     ----------------5-0---------------
     ----------------------------------
Riff
  FA     LAm
Sin perder tiempo  -Riff
FA   LAm
Aprovecharon -Riff
FA  LAm
LA hicieron corta  -Riff
FA    LAm
y se borraron.

Intro 2 veces

Entro al probador...

Riff : muchas veces hasta apagarlo?


Bueno este tema se lo dedico a todos los chicos de villa 
del parque (emi , lea) y a los del nacional bs as ..
especialmente MPMP?. UN ÁNGEL QUE PASÓ

            
            
Suggest correction
Creating personal tab
Creating personal tab
You can edit any tab online and save it as your Personal.

You can edit, replace or remove any tab part or add personal notes – all changes will be seen only by you.

Personal tabs can be accessed anytime from any device, even offline.
Learn more »
Give kudos to tab author, rate the tab!
1 2 3 4 5
comments
print report bad tab
guest
Wanna post a correction for this tab? Suggest correction