Oops, an error
Loading. Please wait.

El Rock Es Mi Forma De Ser tab

by Virus
92 views 1 this week
no commentswrite comment
1 2 3 4 5
1 last vote to show rating
add to favorites
×
Save as Personal and add changes to this tab that will be seen only by you. Learn more ›
×
You can save this tab as Personal to edit and correct it or add notes. All changes will be seen only by you. Learn more »
launch autoscroll
font size
0
reset
how to read this tab
guitar tuner
edit
Autoscroll
slow
fast
+/-
esc
set tempo
stop
Riff1 (Intro)

A5 F5 x4

A5 C5 D5 E5

A5               F5
Solo quiero sacudirte
para que veas las cosas como son
solo quiero sacudirte
para que adoptes tu decision

Riff2

Solo quiero sacudirte
para darme satisfaccion
solo quiero sacudirte
para que cantes conmigo esta cancion

Riff3 (Estribillo)
       A5                   D5
Es el rock rock rock en mi forma de amar
Es el rock rock rock en mi forma de ser
Es el rock rock rock en mi forma de amar
Es el rock rock rock en mi forma de ser

A5 C5 D5 E5

Riff1 (Intro)

Solo quiero sacudirte
para que llegues a la mas baja pasion
solo quiero sacudirte
para que dejes la vasilacion

Solo quiero sacudirte
en plaza constitucion
solo quiero sacudirte
por que sos mi generacion

Es el rock rock rock en mi forma de amar
Es el rock rock rock en mi forma de ser
Es el rock rock rock en mi forma de amar
Es el rock rock rock en mi forma de ser

A5 C5 D5 E5

Riff4 (Solo)

Riff2

Es el rock rock rock en mi forma de amar
Es el rock rock rock en mi forma de ser
Es el rock rock rock en mi forma de amar
Es el rock rock rock en mi forma de ser

Es el rock rock rock en mi forma de amar
Es el rock rock rock en mi forma de ser
Es el rock rock rock en mi forma de amar
Es el rock rock rock en mi forma de ser

A5 C5 D5 E5 F5 G5 A5*


Riff1 (Intro)

e |-------------10-10-10-10-10---------------------------|
B |-------10-12-10-10-10-10-10------------10-10-10-10-10-|
G |-10h11----------------------------9-11-9--9--9--9--9--|
D |----------------------------10h11---------------------|
A |------------------------------------------------------|
E |------------------------------------------------------|

e |-------------10-10-10-10-10-------12(13)-12-10-12----------------|
B |-------10-12-10-10-10-10-10----10-----------------12(13)h12-10\0-|
G |-10h11----------------------11-----------------------------------|
D |-----------------------------------------------------------------|
A |-----------------------------------------------------------------|
E |-----------------------------------------------------------------|

Riff2

e |-4---4---5-5-5-5-7-4---4---5-5-5-5-7---------------9--9--9----------------9--9--9--|
B |-5---5---5-7-7-----5---5---5-7-7-----9------9------11-11-11-9------9------11-11-11-|
G |---6---6-------------6---6-------------10-8---10-8------------10-8---10-8----------|
D |-----------------------------------------------------------------------------------|
A |-----------------------------------------------------------------------------------|
E |-----------------------------------------------------------------------------------|


Riff3 (Estribillo)

e |-----------------------|-----------------------|
B |-----------------------|-----------------------|
G |-----------------------|-----------------------|
D |-------------------4-7-|-------------------4-7-| 1era Guitarra
A |---4-5-7-7-5-4-5-5-----|---4-5-7-7-5-4-5-5-----|
E |-5---------------------|-5---------------------|

e |-----------------------|-----------------------|
B |-----------------------|-----------------------|
G |-----------------------|-----------------------|
D |---------------7-7-----|---------------7-7-----| 2da Guitarra
A |-7-7-----------5-5-----|-7-7-----------5-5-----|
E |-5-5-------------------|-5-5-------------------|
    A5            D5        A5            D5
    
e |-----------------------|-----------------------|
B |-----------------------|-----------------------|
G |-----------------------|-----------------------|
D |-------------------4-7-|-----------------------| 1era Guitarra
A |---4-5-7-7-5-4-5-5-----|---4-5-7-7-5-4-5-5-----|
E |-5---------------------|-5---------------------|

e |-----------------------|-----------------------|
B |-----------------------|-----------------------|
G |-----------------------|-----------------------|
D |---------------7-7-----|---------------7-7-----| 2da Guitarra
A |-7-7-----------5-5-----|-7-7-----------5-5-----|
E |-5-5-------------------|-5-5-------------------|
    A5            D5        A5            D5

Riff4 (Solo)

e |----------------------------------|---------------------------------------------|
B |-12(13)-12(13)-12(13)-12-10-12-10-|-10-12-12(13)-12(13)-10h12h10-10-------------|
G |----------------------------------|---------------------------------11-9h11h9-9-|
D |----------------------------------|---------------------------------------------|
A |----------------------------------|---------------------------------------------|
E |----------------------------------|---------------------------------------------|

e |----------------12--------------------------------------------------------------|
B |-12(13)...10-10----12(13)-10-12(13)-12(13)-12-10--------------------------------|
G |-------------------------------------------------11-9\0-------------------------|
D |--------------------------------------------------------------------------------|
A |--------------------------------------------------------------------------------|
E |--------------------------------------------------------------------------------|

Acordes

e |--------------------------|
B |--------------------------|
G |-------------5--7--9------|
D |----5--7--9--3--5--7------|
A |-7--3--5--7---------------|
E |-5------------------------|
    A5 C5 D5 E5 F5 G5 A5*

() estirar hasta traste entre parentesis
 h ligadura
 \ deslizamiento

            
            
Suggest correction
Creating personal tab
Creating personal tab
You can edit any tab online and save it as your Personal.

You can edit, replace or remove any tab part or add personal notes – all changes will be seen only by you.

Personal tabs can be accessed anytime from any device, even offline.
Learn more »
Give kudos to tab author, rate the tab!
1 2 3 4 5
comments
print report bad tab
guest
Wanna post a correction for this tab? Suggest correction