Oops, an error
Loading. Please wait.

Fire Took His Face tab

604 views 1 this week
no commentswrite comment
1 2 3 4 5
3 more votes to show rating
add to favorites
×
Save as Personal and add changes to this tab that will be seen only by you. Learn more ›
×
You can save this tab as Personal to edit and correct it or add notes. All changes will be seen only by you. Learn more »
launch autoscroll
font size
0
reset
how to read this tab
guitar tuner
edit
Autoscroll
slow
fast
+/-
esc
set tempo
stop
Author
Band: Visceral Bleeding
Album: Transcend Into Ferocity
Song: Fire Took His Face
Record Label: Neurotic Records
Tuning: B E A D F# B
----------------------------------------------------------------|
----------------------------------------------------------------|
----------------------------------ph-----ph-----ph--------------|
----------------------------------9------6------9---------------|
----------------7h10p7-6h9p6-----------------------2-------vib--|
-8765-7654-8765--------------8765---8765---8765----0-4-5-6-5----|
 pm.. .... ....              ....   ....   ....    .

----------------------------------------------------------------|
----------------------------------------------------------------|
----------------------------------------------------------------|
---------------------10\9---9\8---8\7----------------5----------|
----------------------8\7---7\6---6\5----------------3-4-5-3-4--|
-8765-7654-8765-7654------0-----0-----8765-7654-8765---2-3-1-2--|
 pm.. .... .... ....      .     .     .... .... ....

--------------------------------------------------------------------------|
--------------------------------------------------------------------------|
-------ph-----ph-----ph---------------------------------------------------|
-------9------6------9----------------------------------10\9---9\8---8\7--|
------------------------2-------vib----------------------8\7---7\6---6\5--|
--8765---8765---8765----0-4-5-6-5---8765-7654-8765-7654------0-----0------|
  pm..   ....   ....    .           .... .... .... ....      .     .

----------------------------------------------------------------|
----------------------------------------------------------------|
----------------------------------ph-----ph-----ph--------------|
----------------------------------9------6------9---------------|
----------------7h10p7-6h9p6-----------------------2-------7----|
-8765-7654-8765--------------8765---8765---8765----0-4-5-6-5----|
 pm.. .... ....              ....   ....   ....    .

----------------------------------------------------------|
----------------------------------------------------------|
----------------------------------------------------------|
-----------------------------------------6\5--------------|
---------------------8765-7654-8765-7654-4\3-2-5-6-5-4-5--|
-8765-7654-8765-7654-------------------------0-3-4-3-2-3--|
 pm.. .... .... .... .... .... .... ....     .

----------------------------------------------------------------------------|
----------------------------------------------------------------------------|
----------------------------------------------------------------------------|
---------------------------7-6-7-6-4-5-----4-4-----------------7-5h8--------|
---------------------5-6-5-5-4-5-4-2-3-5-4-2-2-5h8p5h8p5h8-4h7-5-----4h7-5--|
-8765-7654-8765-7654-3-4-3-------------3-2-------------------------------3--|
 pm.. .... .... .... . . .             . .

--------------------------------------------------------------------------------|
--------------------------------------------------------------------------------|
--------------------------------------------------------------------------------|
-------7-6-7-6-4-5-----4-5-------------------------3-5/6-------1-3/4-------6-79-|
-5-6-5-5-4-5-4-2-3-5-4-2-3-5-7/8-------3-5/6-------------------------------4-57-|
-3-4-3-------------3-2-----------3-5/6-------1-3/4-------3-5/6-------1-3/4------|
 pm. .             . .

----------------------------------------------------|
----------------------------------------------------|
----------------------------------------------------|
----------------------------------------------------|
-----------------------------------------------7-6--|
-888-777-666-88-77-10-10-9-8-888-777-666-88-77-5-4--|
 trem......................................... pm.

-----------------------------------------------------------------------|
-----------------------------------------------------------------------|
-----------------------------------------------------------------------|
---------------------------------------------------7-6-5---8-----------|
-----------------------------------------------7-6-5-4-3---6--4-5-4-3--|
-888-777-666-88-77-10-10-9-8-888-777-666-88-77-5-4-------0----2-3-2-1--|
 trem......................................... pm.       .

----------------------------------------------------|
----------------------------------------------------|
----------------------------------------------------|
----------------------------------------------------|
-----------------------------------------------7-6--|
-888-777-666-88-77-10-10-9-8-888-777-666-88-77-5-4--|
 trem......................................... pm.

----------------------------------------------------|
----------------------------------------------------|
----------------------------------------------------|
----------------------------------------------------|
-----------------------------------------------7-6--|
-888-777-666-88-77-10-10-9-8-888-777-666-88-77-5-4--|
 trem......................................... pm.

------------------------------------------------------------------|
------------------------------------------------------------------|
------------------------------------------------------------------|
------------------------------------------------------------------|
-334-----112-----334-----112-----667-----445-----667-----445------|
-----334-----112-----334-----112-----667-----445-----667-----445--|

------------------------------------------------------------------|
------------------------------------------------------------------|
-------ph------ph------ph------ph------ph------ph------ph------ph-|
-------3-------3-------3-------3-------3-------3-------3-------3--|
-334-5---112-3---334-5---112-3---334-5---112-3---334-5---112-3----|
-----3-------1-------3-------1-------3-------1-------3-------1----|
    pm       .       .       .       .       .       .       .

--------------------------------------|
--------------------------------------|
--------------------------------------|
---------------------6-5--------------|
---------------------4-3-2-5-6-5-4-5--|
-8765-7654-8765-7654-----0-3-4-3-2-3--|X2
 pm.. .... .... ....     .

------------------------------|
------------------------------|
------------------------------|
-----3-4-3---------------8----|
-222-1-2-1-4-5-4-3-4-3-4-6-7--|
-000-------2-3-2-1-2-1-2---5--|
 pm.             . . . .

----------------------------------------------------------------|
----------------------------------------------------------------|
----------------------------------ph-----ph-----ph--------------|
----------------------------------9------6------9---------------|
----------------7h10p7-6h9p6-----------------------2-------vib--|
-8765-7654-8765--------------8765---8765---8765----0-4-5-6-5----|
 pm.. .... ....              ....   ....   ....    .

----------------------------------------------------------------|
----------------------------------------------------------------|
----------------------------------------------------------------|
---------------------10\9---9\8---8\7----------------5----------|
----------------------8\7---7\6---6\5----------------3-4-5-3-4--|
-8765-7654-8765-7654------0-----0-----8765-7654-8765---2-3-1-2--|
 pm.. .... .... ....      .     .     .... .... ....

--------------------------------------------------------------------------|
--------------------------------------------------------------------------|
-------ph-----ph-----ph---------------------------------------------------|
-------9------6------9----------------------------------10\9---9\8---8\7--|
------------------------2-------vib----------------------8\7---7\6---6\5--|
--8765---8765---8765----0-4-5-6-5---8765-7654-8765-7654------0-----0------|
  pm..   ....   ....    .           .... .... .... ....      .     .

------------------------------------------------------------|
------------------------------------------------------------|
----------------------------------ph-----ph-----ph----------|
----------------------------------9------6------9-----------|
----------------7h10p7-6h9p6-----------------------2--------|
-8765-7654-8765--------------8765---8765---8765----0-4-5-6--|
 pm.. .... ....              ....   ....   ....    .

--------------------------------------------------------------------|
--------------------------------------------------------------------|
---------------------------------------ph------ph------ph------ph---|
---------------------------------------3-------3-------3-------3-5--|
-334-----112-----667-----445-----334-5---112-3---334-5---112-3---3--|
-----334-----112-----667-----445-----3-------1-------3-------1------|
                                     pm      .       .       .

------------------|
------------------|
------------------|
-6-5--------------|
-4-3-2-5-6-5-4-5--|
-----0-3-4-3-2-3--|
    pm

--------------------------------------|
--------------------------------------|
--------------------------------------|
---------------------6-5--------------|
---------------------4-3-2-5-6-5-4-5--|
-8765-7654-8765-7654-----0-3-4-3-2-3--|X2
 pm.. .... .... ....     .

--------------------------------------------------------------|
--------------------------------------------------------------|
---------------------------------------4h5p4---6h7p6----------|
-----3-4-3---------------8-----4h5p4-------------------5-4----|
-222-1-2-1-4-5-4-3-4-3-4-6-7-5-------------------------3-2----|
-000-------2-3-2-1-2-1-2---5-3-------0-------0-------0-----0--|
 pm.             . . . .             .       .       .     .

--------------------------------------------|
--------------------------------------------|
---------4h5p4---7h8p7----------------------|
-4h5p4-------------------5-4-----5-4--------|
-------------------------3-2-5-4-3-2-5-4-4--|
-------0-------0-------0-----3-2-----3-2-2--|
      pm       .       .     . .

-------------------------------------------------------|
-------------------------------------------------------|
-------------------------------------------------------|
--------7-6-7-6-4-5-----4-4-----------------7-5h8------|
--5-6-5-5-4-5-4-2-3-5-4-2-2-5h8p5h8p5h8-4h7-5-----4h7--|
--3-4-3-------------3-2--------------------------------|
  . . .             . .

----------------------------------------------------------------------------|
----------------------------------------------------------------------------|
----------------------------------------------------------------------------|
-------7-6-7-6-4-5-----4-5-------------------------3-5/6-------1-3/4--------|
-5-6-5-5-4-5-4-2-3-5-4-2-3-5-7/8-------3-5/6--------------------------------|
-3-4-3-------------3-2-----------3-5/6-------1-3/4-------3-5/6-------1-3/4--|
 pm. .             . .

-------------------------------------------------------|
-------------------------------------------------------|
-------------------------------------------------------|
--------7-6-7-6-4-5-----4-4-----------------7-5h8------|
--5-6-5-5-4-5-4-2-3-5-4-2-2-5h8p5h8p5h8-4h7-5-----4h7--|
--3-4-3-------------3-2--------------------------------|
  . . .             . .

-------------------------------------------------------------------------------|
-------------------------------------------------------------------------------|
-------------------------------------------------------------------------------|
-------7-6-7-6-4-5-----4-5-------------------------3-5/6-------1-3/4-----------|
-5-6-5-5-4-5-4-2-3-5-4-2-3-5-7/8-------3-5/6-------------------------------789-|
-3-4-3-------------3-2-----------3-5/6-------1-3/4-------3-5/6-------1-3/4-----|
 pm. .             . .

----------------------------------------------------|
----------------------------------------------------|
----------------------------------------------------|
----------------------------------------------------|
-----------------------------------------------7-6--|
-888-777-666-88-77-10-10-9-8-888-777-666-88-77-5-4--|X2
 trem......................................... pm.

------------------------------------------------------------------|
------------------------------------------------------------------|
------------------------------------------------------------------|
------------------------------------------------------------------|
-334-----112-----334-----112-----667-----445-----667-----445------|
-----334-----112-----334-----112-----667-----445-----667-----445--|

--------------------------------------------------------------------|
--------------------------------------------------------------------|
--------------------------------------------------------------------|
-----------------------------------------------------------------9--|
-334-----112-----334-----112-----334-----112-----334-----112-----7--|
-----334-----112-----334-----112-----334-----112-----334-----1-1----|

THE END

            
            
Suggest correction
Creating personal tab
Creating personal tab
You can edit any tab online and save it as your Personal.

You can edit, replace or remove any tab part or add personal notes – all changes will be seen only by you.

Personal tabs can be accessed anytime from any device, even offline.
Learn more »
Give kudos to tab author, rate the tab!
1 2 3 4 5
comments
print report bad tab
guest
You may want to rate the tab now too:
select rating
Wanna post a correction for this tab? Suggest correction