Oops, an error
Loading. Please wait.

Aitebar chords

version 1
version 1

Whole song

33,023 views 156 this week
3 commentsread comments
1 2 3 4 5
x 8
add to favorites
×
Save as Personal and add changes to this tab that will be seen only by you. Learn more ›
×
You can save this tab as Personal to edit and correct it or add notes. All changes will be seen only by you. Learn more »
launch autoscroll
font size
0
reset
transpose
0
reset
display chords
guitar tuner
edit
Autoscroll
slow
fast
+/-
esc
set tempo
stop
Author
Strumming
There is no strumming pattern for this song yet. and get +5 IQ
Vital Signs: Aitebar (Unplugged)

Tabbed by: Saad Naveed Pall (toovikkid@yahoo.com)

Was searching all over the internet for chords to this song but couldn't find
anything half as accurate... Its my first attempt at tabbing, any corrections
more than welcome, but it sounds pretty decent already...
Still trying to work out the solo that Amir Zaki plays in this song... 

[Intro]

e|-12-----11-----9--------9------------12-------|
B|----9------9-----9---12---12-10-9-10-10-9h10p9|
G|------9------9-----9-----------------9--------|
D|----------------------------------------------|
A|----------------------------------------------|
E|----------------------------------------------|(x2)

[Chorus]
(Soft plucking)

        E                A
Aitebar bhee aahee jayey ga 
        G#m          F#m
Milo to sahee Raasta koyee 
        G#m
milhee jayey ga
        F#m              B
Chalo to sahee, chalo to sahee 
        E                A               E
Aitebar bhee aahee jayey ga, aahee jayey ga

[Intro]

e|-12-----11-----9--------9------------12-------|
B|----9------9-----9---12---12-10-9-10-10-9h10p9|
G|------9------9-----9-----------------9--------|
D|----------------------------------------------|
A|----------------------------------------------|
E|----------------------------------------------|(x2)

[Verse 1]
(Strumming starts)

E     D       E               A
Dhoop mein khara jalraha houn mein
         E
Saaya do mujhey
         A
Yeh mera junoon
         G#m
Yeh meri jalun
         B
Hai meri saza
         F#m
Meri yeh thakun
             G#m 
Kherahee hai kya
         F#m            B
Suno to sahee, suno to sahee
        E                A               E
Aitebar bhee aahee jayey ga, aahee jayey ga

[Solo]
(Will post when I figure this out)

[Verse 2]

E     D    E             A
Kya huwa agar zindagee Zara
           E
ulajh si gayey 
          F#m
socho to zara,
              G#m 
Jungulon mein bhee 
           B
raastey to hain 
             F#m
Humey bhee koyee 
            G#m
milhee jayey ga
           F#m
Chalo to sahee, 
           B
chalo to sahee
            E              A
Pyar vyar bhee hohee gayey ga
         G#m          F#m
Milo to sahee raasta koyee 
             G#m
milhee jayeye ga
           F#m 
Chalo to sahee, 
           B
chalo to sahee
        E                A               E
Aitebar bhee aahee jayey ga, aahee jayey ga
            E   E       D   E
Aahee jayey ga, aahee jayey ga. 

[Outro]
(same as intro)

e|-12-----11-----9--------9------------12-------|
B|----9------9-----9---12---12-10-9-10-10-9h10p9|
G|------9------9-----9-----------------9--------|
D|----------------------------------------------|
A|----------------------------------------------|
E|----------------------------------------------|(x2)



************************************

| h  Hammer-on
| p  Pull-off

************************************

            
            
Suggest correction
Creating personal tab
Creating personal tab
You can edit any tab online and save it as your Personal.

You can edit, replace or remove any tab part or add personal notes – all changes will be seen only by you.

Personal tabs can be accessed anytime from any device, even offline.
Learn more »
comments
print report bad tab
3 comments total.
0 reply
hamzakhan_1144 10 Aug 18, 2017 03:29 PM

its beautiful.

0 reply
hamzakhan_1144 10 Aug 18, 2017 03:40 PM

what is the strumming pattern ???

0 reply
ak281999ak 10 Sep 13, 2017 06:45 AM

bro strumming hai
D DU UDUD. 4×4

guest
You may want to rate the tab now too:
select rating
Wanna post a correction for this tab? Suggest correction