Oops, an error
Loading. Please wait.

Bikini A Lunares Amarillo, Diminuto, Justo, Justo chords

94 views 1 this week
no commentswrite comment
1 2 3 4 5
3 more votes to show rating
add to favorites
×
Save as Personal and add changes to this tab that will be seen only by you. Learn more ›
×
You can save this tab as Personal to edit and correct it or add notes. All changes will be seen only by you. Learn more »
launch autoscroll
font size
0
reset
transpose
0
reset
simplify chords
display chords
guitar tuner
edit
Autoscroll
slow
fast
+/-
esc
set tempo
stop
Strumming
There is no strumming pattern for this song yet. and get +5 IQ
Bikini a lunares amarillo, diminuto, justo, justo
(Vance - Pockriss / Vers. en cast.: Viuda e hijas)


 |       |       |       |        |       |       |       |
|--------------------------------|--------------------------------|
|--------------------------------|--------------------------------|
|--------------------------------|--------------------------------|
|------------------------5-----5-|7---5---4---2-------------------|
|--------2-------5---------------|----------------5---------------|
|3-------------------------------|--------------------------------|
 pa      pa      pa      pa    pa pa  pa  pa  pa  pa

          G      G#dim      Am7    D7
  Ella quería curtír playa Bristol
         Am7      D7        G
  para pelar su bikini infernal
                     G7         C    C#dim
  Despues de tanto mirarse al espejo
           G       D7         G
  sus carnecitas decidió mostrar

  (Sin tocar)
  Uno, dos y tres ¡ay, que bien se te ve!

           D7                G                       D7
  Era un bikini a lunares amarillo, diminuto, justo, justo
              G
  que ella pensaba estrenar
           D7                G                       D7
  Era un bikini a lunares amarillo, diminuto, justo, justo
                 C         G
  que a todos pintaba infartar

  (Sin tocar)
  Uno, dos y tres, ¡esta nena se la cree!

   |       |       |       |        |       |       |       |
|--------------------------------|--------------------------------|
|--------------------------------|--------------------------------|
|--------------------------------|--------------------------------|
|------------------------5-----5-|7---5---4---2-------------------|
|--------2-------5---------------|----------------5---------------|
|3-------------------------------|--------------------------------|
 cha     cha     cha     don - de esta mi cha cha cha?

             G         G#dim     Am7      D7
  Llegó a la playa escuchando su walkman
               Am7       D7     G
  volcó en la arena sin preocupación
                        G7         C    C#dim
  Y se dió cuenta que había olvidado
         G           D7       G
  de depilarse al sistema español

  (Sin tocar)
  Uno, dos y tres, ¡que pelitos que tenés!

           D7                G                       D7
  Era un bikini a lunares amarillo, diminuto, justo, justo
              G
  que ella pensaba estrenar
           D7                G                       D7
  Era un bikini a lunares amarillo, diminuto, justo, justo
                 C         G
  que a todos pintaba infartar

  (Sin tocar)
  Uno, dos y tres, ¡te olvidaste otra ves!

   |       |       |       |        |       |       |       |
|--------------------------------|--------------------------------|
|--------------------------------|--------------------------------|
|--------------------------------|--------------------------------|
|------------------------7-----7-|9---7---6---4-------------------|
|--------4-------7---------------|----------------7---------------|
|5-------------------------------|--------------------------------|
 cha     cha     cha     que   se sube el cha cha cha

            A        A#dim    Bm7   E7
  No se bancó la prendida de fuego
          Bm7      E7        A
  echando humo mandó para el mal
                       A7   D     D#dim
  los bañeritos se le avalanzaron
           A      E7      A
  y del bikini no se supo más


  Uno, dos y tres, ¡ay, que suerte que tenés!

         E7                A                         E7
  Era un bikini a lunares amarillo, diminuto, justo, justo
              A
  que ella pensaba estrenar
           E7                A                       E7
  Era un bikini a lunares amarillo, diminuto, justo, justo
                 D         E7
  que a todos pintaba infartar

 A                E7
  Por no ir a depilarse
                    A
  miren lo que le pasó
                E7
  Moraleja: depilate
                      A       A
  si queres gozar del sol

Acordes:
 ---------------
|      | EADGBe |
|------|--------|
|G     | 355433 |
|G#dim | 4X343X |
|Am7   | 575555 |
|D7    | X57575 |
|G7    | 353433 |
|C     | X35553 |
|C#dim | X4535X |
 ---------------

            
            
Suggest correction
Creating personal tab
Creating personal tab
You can edit any tab online and save it as your Personal.

You can edit, replace or remove any tab part or add personal notes – all changes will be seen only by you.

Personal tabs can be accessed anytime from any device, even offline.
Learn more »
Give kudos to tab author, rate the tab!
1 2 3 4 5
comments
print report bad tab
guest
Wanna post a correction for this tab? Suggest correction