Oops, an error
Loading. Please wait.

Pacto De Sangre tab

89 views 1 this week
no commentswrite comment
1 2 3 4 5
3 more votes to show rating
add to favorites
×
Save as Personal and add changes to this tab that will be seen only by you. Learn more ›
×
You can save this tab as Personal to edit and correct it or add notes. All changes will be seen only by you. Learn more »
launch autoscroll
font size
0
reset
how to read this tab
guitar tuner
edit
Autoscroll
slow
fast
+/-
esc
set tempo
stop
INTRO

e-------------------------------------------
b-------------------------------------------
g-------------------------------------------
d-2-2--2-2--2-2--2-2--2-2--2-2--2-2--2-2----
a-2-2--2-2--2-2--2-2--2-2--2-2--2-2--2-2----
e-0-0--0-0--0-0--0-0--0-0--0-0--0-0--0-0----


e-------------------------------------------
b-------------------------------------------
g-------------------------------------------
d-9---8-------7----6------9---8-------7---6-
a-7---7-------7----7------7---7-------7---7-
e-------------------------------------------


e-------------------------------------------
b-------------------------------------------
g-------------------------------------------
d-2-2--2-2--2-2--2-2--2-2--2-2--2-2--2-2----
a-2-2--2-2--2-2--2-2--2-2--2-2--2-2--2-2----
e-0-0--0-0--0-0--0-0--0-0--0-0--0-0--0-0----


e-------------------------------------------
b-------------------------------------------
g-------------------------------------------
d-2-2--2-2--2-2--2-2--2-2--2-2--2-2--2-2----
a-2-2--2-2--2-2--2-2--2-2--2-2--2-2--2-2----
e-0-0--0-0--0-0--0-0--0-0--0-0--0-0--0-0----


e-------------------------------------------
b-------------------------------------------
g-------------------------------------------
d-9-9--9-9--9-9--9-9------------------------
a-7-7--7-7--7-7--7-7------------------------
e-0-0--0-0--0-0--0-0------------------------

--------------------------------------------------
VERSO

Em                      C
No me basta tu piel para saciar mi sed
D                              B
Quiero amarte por dentro ser la sangre en tu cuerpo

   Em                C
e-------------------------------------------------
b-------------------------------------------------
g-------------------------------------------------
d-------------------------5-5--5-5--5-5--5-5--5-5-
a-2-2--2-2--2-2--2-2--2-2-3-3--3-3--3-3--3-3--3-3-
e-0-0--0-0--0-0--0-0--0-0-------------------------
Atrapado en tus venas    Cumpliré esta condena


   D                B
e-------------------------------------------------
b-------------------------------------------------
g-------------------------------------------------
d-7-7--7-7--7-7--7-7--7-7-4-4--4-4--4-4--4-4--4-4-
a-5-5--5-5--5-5--5-5--5-5-2-2--2-2--2-2--2-2--2-2-
e-------------------------------------------------
En tu fluido vital      estaré hasta el final

  Em                       C
e---------------------------------------------------------
b---------------------------------------------------------
g-----------------------------5-5-----------5-5-----------
d-2-2-----------2-2-----------3-3---3-3-3-3-3-3---3-3-3-3-
a-0-0---0-0-0-0-0-0---0-0-0-0-----------------------------
Seré quien te llene.......

  G                        B
e---------------------------------------------------------
b---------------------------------------------------------
g---------------------------------------------------------
d-----------------------------4-4-----------4-4-----------
a-5-5-----------5-5-----------2-2---2-2-2-2-2-2---2-2-2-2-
e-3-3---3-3-3-3-3-3---3-3-3-3-----------------------------
   sentire mientras sientas.....

  Em                        C
e----------------------------------------------------------
b----------------------------------------------------------
g----------------------------------------------------------
d-------------------------------5--------------------------
a-2-----------------------------3-3-3-3-3-3-3-3-3-3-3-3-3--
e-0-0-0-0-0-0-0-0-0-0-0-0-0-0-0----------------------------
vivire mientra vivas...

  G                             B
e----------------------------------------------------------
b----------------------------------------------------------
g----------------------------------------------------------
d-------------------------------4-----------------4--------
a-5-----------------------------2-2-2-2-2-2-2-2-2-2--------
e-3-3-3-3-3-3-3-3-3-3-3-3-3-3-3----------------------------
acaricio tu cintura


---------------------------------------------------------


CORO

   C                G
e-----------------------------------------------
b-----------------------------------------------
g-----------------------------------------------
d-5-----------5---------------------------------
a-3-----------3---------5---------5-------------
e-----------------------3-3~------3-3~----------
Pero no te olvides .....

   D               Am
e--------------------------------------------
b---------------------------------------------
g---------------------------------------------
d-7-----------7--------2---------2------------
a-5-----------5--------0---------0------------
e---------------------------------------------


----------------------------------------------------------
   G               D
e-------------------------------------------
b-------------------------------------------
g-------------------------------------------
d----------------------7---------7----------
a-5-----------5--------5---------5----------
e-3-----------3-----------------------------
 No olvidarás desentierra la memoria......

  Em              C                 B
e--------------------------------------------------
b--------------------------------------------------
g--------------------------------------------------
d-9-----------9-------5-5-5-5-5-5-5-5-5-4-4-4-4----
a-7-----------7-------3-3-3-3-3-3-3-3-3-2-2-2-2----
e--------------------------------------------------

  G  F#  Em
e----------------------------------------------------
b----------------------------------------------------
g----------------------------------------------------
d-5--4---2-2--2-2--2-2--2-2--2-2--2-2--2-2--2-2--2-2-
a-5--4---2-2--2-2--2-2--2-2--2-2--2-2--2-2--2-2--2-2-
e-3--2---0-0--0-0--0-0--0-0--0-0--0-0--0-0--0-0--0-0-


e-------------------------------------------
b-------------------------------------------
g-------------------------------------------
d-9-9--9-9--9-9--9-9------------------------
a-7-7--7-7--7-7--7-7------------------------
e-0-0--0-0--0-0--0-0------------------------


--------------------------------------------------------

REPITE VERSO

--------------------------------------------------------

REPITE CORO

--------------------------------------------------------


  Am              Bm              D            Am
e--------------------------------------------------------
b--------------------------------------------------------
g--------------------------------------------------------
d-2------------------4---------------7-------------2-----   X2
a-0------------------2---------------5-------------0-----
e--------------------------------------------------------
Dama de rojo........`

 B
e--------------------
b--------------------
g--------------------
d-4-4-4-4-4-4-4-4-4--
a-2-2-2-2-2-2-2-2-2--
e--------------------
aaaaaaaaaaaaaaaaaa

----------------------------------------------------------


e-------4-5-4---4----------------------4-5-4---4-------------
b-3-5-6-------6---6-5-3-5-6-5-3--3-5-6-------6---6-5-3-5-6---
g------------------------------------------------------------
d------------------------------------------------------------  x2
a------------------------------------------------------------
e------------------------------------------------------------


e-4-5-7-5-7--5-7-8-7-8--7-8-10-8-10--8-10-12-10-12--
b---------------------------------------------------
g---------------------------------------------------
d---------------------------------------------------
a---------------------------------------------------
e---------------------------------------------------

----------------------------------------------------------

SOLO DEL TECLADO(LA GUITARRA ACOMPAÑA CON ESTO)

e---------------------------------------------------------
b---------------------------------------------------------
g---------------------------------------------------------
d---------------------------------------------------------
a-5-7-5---5-7-8--5-7-5---5-7--5-7-5---5-7-8--5-7-5---5-7--
e-------7--------------7------------7--------------7------

e---------------------------------------------------------------
b---------------------------------------------------------------
g---------------------------------------------------------------
d---------------------------------------------------------------
a-8-10-8----8-10-11--8-10-8----8-10--5-7-5---5-7-8--5-7-5---5-7-
e--------10-----------------10-------------7--------------7-----


e----------------------------------------------------------
b----------------------------------------------------------
g----------------------------------------------------------
d----------------------------------------------------------
a-8-10-8----8-10-11-10-11-13-11-13-14-13-14-16-14-16-18-19-
e--------10------------------------------------------------


SOLO

e-14b--14~------------------------------------------------
b------------------------------------------11/13-12-------
g-----------------12-14-14b---12--12~---------------12-11~
d--------------14---------------14------------------------
a---------------------------------------------------------
e---------------------------------------------------------

e------------------------------------------------------
b------------------------------------------------------
g-8b-7b------------------------------------------------
d------------10-9-10--9-10-12-10-9-7-------------------
a------------------------------------10~---------------
e------------------------------------------------------


e-14b-14------14b-14---17--15-14-15------14-15-17-19----15-14----12~
b-------12~---------15----------------15----------------------------
g-------------------------------------------------------------------
d-------------------------------------------------------------------
a-------------------------------------------------------------------
e-------------------------------------------------------------------

e----------------------------------------
b-13-12-10-------------------------------
g----------12-11-10-11h---9-7-9b\-----2--
d----------------------------------5--2--
a----------------------------------5--0--
e----------------------------------3-----


e-------------------------------------------
b-------------------------------------------
g-------------------------------------------
d-2-2--2-2--2-2--2-2--2-2--2-2--2-2--2-2----
a-2-2--2-2--2-2--2-2--2-2--2-2--2-2--2-2----
e-0-0--0-0--0-0--0-0--0-0--0-0--0-0--0-0----


e-------------------------------------------
b-------------------------------------------
g-------------------------------------------
d-2-2--2-2--2-2--2-2--2-2--2-2--2-2--2-2----
a-2-2--2-2--2-2--2-2--2-2--2-2--2-2--2-2----
e-0-0--0-0--0-0--0-0--0-0--0-0--0-0--0-0----

-------------------------------------------------------

REPITE CORO
(pero no te olvides......)

------------------------------------------------------


   G               D
e-------------------------------------------
b-------------------------------------------
g-------------------------------------------
d----------------------7---------7----------
a-5-----------5--------5---------5----------
e-3-----------3-----------------------------
 No olvidarás desentierra la memoria......

  Em              C                 B
e--------------------------------------------------
b--------------------------------------------------
g--------------------------------------------------
d-9-----------9-------5-5-5-5-5-5-5-5-5-4-4-4-4----
a-7-----------7-------3-3-3-3-3-3-3-3-3-2-2-2-2----
e--------------------------------------------------

  G  F#  Em
e---------------------------------------
b---------------------------------------
g---------------------------------------
d-5--4---2-2--2-2--2-2--2-2--2-2--2-2--2
a-5--4---2-2--2-2--2-2--2-2--2-2--2-2--2
e-3--2---0-0--0-0--0-0--0-0--0-0--0-0--0


Y ESO ES TODO
ALGUNA DUDA O SUGERENCIA SOLO ECRIBANLA A MI CORREO
------------julianrock4ever@
  ---------------------------------------------
    -----------------------------------------
      -------------------------------------
        ---------------------------------
          -----------------------------
            -------------------------
              ---------------------
                -----------------
                  -------------
                    ---------
                      -----
                        -

            
            
Suggest correction
Creating personal tab
Creating personal tab
You can edit any tab online and save it as your Personal.

You can edit, replace or remove any tab part or add personal notes – all changes will be seen only by you.

Personal tabs can be accessed anytime from any device, even offline.
Learn more »
Give kudos to tab author, rate the tab!
1 2 3 4 5
comments
print report bad tab
guest
Wanna post a correction for this tab? Suggest correction