Oops, an error
Loading. Please wait.
We have Chord Pro version of Fallen.
It's the closest thing you can get to the original song and it has interactive parts. Check out the tab »
×
by Volbeat
16,299 views 33 this week
1 commentread comment
1 2 3 4 5
x 5
add to favorites
×
Save as Personal and add changes to this tab that will be seen only by you. Learn more ›
×
You can save this tab as Personal to edit and correct it or add notes. All changes will be seen only by you. Learn more »
launch autoscroll
font size
0
reset
transpose
0
reset
display chords
guitar tuner
backing track
0:00
0:00
edit
Autoscroll
slow
fast
+/-
esc
set tempo
stop
Strumming
There is no strumming pattern for this song yet. and get +5 IQ
I took one of the chords I found here and built it in a better way, tho the
first chords was kinda bad.... Tuning standard *EADGBE*

On the part *But I will rise* I play it like this
e|--------------------------------------------------------------------------|
B|--------------------------------------------------------------------------|
G|--------------------------------------------------------------------------|
D|---------5-5-5-5-5-5-5-5-4-4-4-4-2-2-2-2----------------------------------|
A|---------5-5-5-5-5-5-5-5-4-4-4-4-2-2-2-2----------------------------------|
E|---------3-3-3-3-3-3-3-3-2-2-2-2-0-0-0-0----------------------------------|
But I will rise

so start the strumming at *Rise*

That part you can also play in the ends on the verse and also in the end of the
song before going on the last D.

[Chords]
           G      D      A      Bm
e|---------------------------------------------------------------------------|
B|------------------------------3--------------------------------------------|
G|----------------7-------------4--------------------------------------------|
D|---------5------7------7------4--------------------------------------------|
A|---------5------5------7------2--------------------------------------------|
E|---------3-------------5---------------------------------------------------|

Volbeat - Fallen

[Intro]
D   G  x2

[Verse]
D
Feel the sadness burning in my heart
G
You left to early father love
D
So many things I should have said
G
But in your mind you knew it well
D
Holding on to what I got and love
G
But things still seems so dark and cold
D                           G
The fire is burning down my happiness
           G
But I will rise

D   G   x4
(Then continue during verse)

[Verse]
D
So proud and strong you truly were
G
I took it with me as a tool
D
A gift from father to his only son
G
Watching over me with eagle eyes
D
You gave me freedom to a life
G
where dreams are born and truly became real

[Chorus]
D                        A
See me falling, down and lonely
        Bm               A               G
Are the angels on their way, I'm in the dirt
        D                 A
Hear me screaming, see me bleeding
          Bm               A            G
Cause the days no more the same without you

D   G   x2

[Verse]
D
Promise me my son you always will
G
Cherish what you love believing in
D
Never lose your values, stand up for the day
G
Oh dear father I thank you for the years
D
I'm writing this song on your desk
G
Together we can make it through the day

[Chorus]
D                        A
See me falling, down and lonely
        Bm               A               G
Are the angels on their way, I'm in the dirt
        D                 A
Hear me screaming, see me bleeding
          B                A            G
Cause the days no more the same without you

[Solo]
D    A       \
Bm    A   G   / x2
D

[Chorus] x2
                         A
See me falling, down and lonely
        Bm              A               G
Are the angels on their way, I'm in the dirt
        D                 A
Hear me screaming, see me bleeding
          B                A            G
Cause the days no more the same without you

D   G   x4

End on D

            
            
Suggest correction
Creating personal tab
Creating personal tab
You can edit any tab online and save it as your Personal.

You can edit, replace or remove any tab part or add personal notes – all changes will be seen only by you.

Personal tabs can be accessed anytime from any device, even offline.
Learn more »
comments
print report bad tab
1 comment total.
+2 reply
kronnozz 125 Feb 14, 2014 08:00 PM

the Bb cord should just be a Bm instead

guest
You may want to rate the tab now too:
select rating
Wanna post a correction for this tab? Suggest correction