Oops, an error
Loading. Please wait.
We have an official Still Counting tab made by UG professional guitarists. Check out the tab »
×
by Volbeat
164,318 views 276 this week
10 commentsread comments
1 2 3 4 5
x 76
add to favorites
×
Save as Personal and add changes to this tab that will be seen only by you. Learn more ›
×
You can save this tab as Personal to edit and correct it or add notes. All changes will be seen only by you. Learn more »
launch autoscroll
font size
0
reset
how to read this tab
guitar tuner
edit
Autoscroll
slow
fast
+/-
esc
set tempo
stop
Still Counting
---------------

Song- Still Counting
Band- Volbeat
tuning- Drop D


[Intro]

E|--------------------------|----------------------|
B|-x--6--x-x-6---6--x-x-6---|6--x-x-6---6--x-x-6---|
G|-x--7--x-x-7---7--x-x-7---|7--x-x-7---7--x-x-7---|
D|-x--7--x-x-7---7--x-x-7---|7--x-x-7---7--x-x-7---|
A|-x--5--x-x-5---5--x-x-5---|5--x-x-5---5--x-x-5---|
D|--------------------------|----------------------|

E|---------------------------|----------------------|
B|-----x-x----------x-x------|---x-x--------x-x-----|
G|-10--x-x-10---10--x-x-10---|3--x-x-3---2--x-x-2---|
D|-10--x-x-10---10--x-x-10---|3--x-x-3---2--x-x-2---|
A|--8--x-x--8----8--x-x--8---|1--x-x-1---0--x-x-0---|
D|---------------------------|----------------------|


[Verse 1]

E|-----------------------|----------------------|
B|-6--x-x-6---6--x-x-6---|6--x-x-6---6--x-x-6---|
G|-7--x-x-7---7--x-x-7---|7--x-x-7---7--x-x-7---|
D|-7--x-x-7---7--x-x-7---|7--x-x-7---7--x-x-7---|
A|-5--x-x-5---5--x-x-5---|5--x-x-5---5--x-x-5---|
D|-----------------------|----------------------|
                                                         Play 4x
E|---------------------------|----------------------|
B|-----x-x----------x-x------|---x-x--------x-x-----|
G|-10--x-x-10---10--x-x-10---|3--x-x-3---2--x-x-2---|
D|-10--x-x-10---10--x-x-10---|3--x-x-3---2--x-x-2---|
A|--8--x-x--8----8--x-x--8---|1--x-x-1---0--x-x-0---|
D|---------------------------|----------------------|


[Heavy Intro]

E|---------------------------------|-------------------------|
B|---------------------------------|-------------------------|
G|---------------------------------|-------------------------|
D|-0-0-------------0-0-------------|0-0-------------3--3--1--|
A|-0-0-------------0-0-------------|0-0-------------3--3--1--|
D|-0-0-0-0-0-0-0-0-0-0-0-0-0-0-0-0-|0-0-0-0-0-0-0-0-3--3--1--|
     PM---------|    PM---------|     PM---------|

E|--------------------------------|--------------------------------|
B|--------------------------------|--------------------------------|
G|--------------------------------|--------------------------------| Play
D|-0-0---0-----0---0-0---0-----0--|0-0---0-----0-------------------|  2x
A|-0-0---0-----0---0-0---0-----0--|0-0---0-----0-------------------|
D|-0-0-0-0-0-0-0---0-0-0-0-0-0-0--|0-0-0-0-0-0-0--3p0--0--1p0-1p0--|
     PM  PM-|        PM  PM-|       PM  PM-|

E|---------------------------------|--------------------------------|
B|---------------------------------|--------------------------------|
G|---------------------------------|--------------------------------| Play
D|-----0-----0-----0-----0-----1p0-|----0-----0-----0-----0-----1p0-|  2x
A|-----0-----0-----0-----0-----1p0-|----0-----0-----0-----0-----1p0-|
D|-0-0-0-0-0-0-0-0-0-0-0-0-0-0-1p0-|0-0-0-0-0-0-0-0-0-0-0-0-0-0-1p0-|
 PM-|  PM-|  PM-|  PM-|  PM-|     PM-|  PM-|  PM-|  PM-|  PM-|

E|-----|--------------------|--------------------------|
B|-----|--------------------|--------------------------|
G|-----|7-------------------|--------------------------|
D|-----|7-------5h7--5h7p5--|3------3--------8--8p7-7--|
A|-----|5-----5-------------|3------3-3-3-3--8--8p7-7--|
D|-0-0-|--------------------|3------3-3-3-3--8--8p7-7--|
 PM-|                               PM---|


[Verse 2]

E|-------------------------|-------------------------|
B|-------------------------|-------------------------|
G|-7-----------------------|-------------------------|
D|-7-----7-----------7-----|3-----3--------8--8p7-7--|
A|-5--------5--3--5-----5--|3-----3-3-3-3--8--8p7-7--|
D|-------------------------|3-----3-3-3-3--8--8p7-7--|
                                  PM---|

E|-------------------------|-------------------------|
B|-------------------------|-------------------------|
G|-7-----------------------|-------------------------|
D|-7-----7-----------7-----|3-----3--------8--8p7-7--|
A|-5--------5-----5-----5--|3-----3-3-3-3--8--8p7-7--|
D|-------------------------|3-----3-3-3-3--8--8p7-7--|
                                  PM---|

[Chorus 1]

E|--------------------------|-------------------------|
B|--------------------------|-------------------------|
G|--------------------------|-------------------------|
D|-8--8--8-8-8--8--8--8-8-8-|8--8--8-8-8--8--8--8-8-8-|
A|-8--8--8-8-8--8--8--8-8-8-|8--8--8-8-8--8--8--8-8-8-|
D|-8--8--8-8-8--8--8--8-8-8-|8--8--8-8-8--8--8--8-8-8-|

E|------------------------------------|-------------------------|
B|------------------------------------|-------------------------|
G|-10--10--10-10-10--10--10--10-10-10-|7--7--7-7-7--7--7--------|
D|-10--10--10-10-10--10--10--10-10-10-|7--7--7-7-7--7--7--7--7--|
A|--8---8---8--8--8---8---8---8--8--8-|5--5--5-5-5--5--5--7--7--|
D|------------------------------------|-------------------7--7--|

E|--------------------------|-------------------------|
B|--------------------------|-------------------------|
G|--------------------------|-------------------------|
D|-8--8--8-8-8--8--8--8-8-8-|8--8--8-8-8--8--8--8-8-8-|
A|-8--8--8-8-8--8--8--8-8-8-|8--8--8-8-8--8--8--8-8-8-|
D|-8--8--8-8-8--8--8--8-8-8-|8--8--8-8-8--8--8--8-8-8-|

E|------------------------------------|---------------------|
B|------------------------------------|---------------------|
G|-10--10--10-10-10--10--10--10-10-10-|7-7-7-7-7-7-7--------|
D|-10--10--10-10-10--10--10--10-10-10-|7-7-7-7-7-7-7--7--7--|
A|--8---8---8--8--8---8---8---8--8--8-|5-5-5-5-5-5-5--7--7--|
D|------------------------------------|---------------7--7--|


[Interlude]

E|---------------------|--------------------------|
B|---------------------|--------------------------|
G|-7-------------------|--------------------------|
D|-7-------5h7--5h7p5--|3------3--------8--8p7-7--|
A|-5-----5-------------|3------3-3-3-3--8--8p7-7--|
D|---------------------|3------3-3-3-3--8--8p7-7--|
                               PM---|

[Verse 3]

E|-------------------------|-------------------------|
B|-------------------------|-------------------------|
G|-7-----------------------|-------------------------|
D|-7-----7-----------7-----|3-----3--------8--8p7-7--|
A|-5--------5--3--5-----5--|3-----3-3-3-3--8--8p7-7--|
D|-------------------------|3-----3-3-3-3--8--8p7-7--|
                                  PM---|

E|-------------------------|-------------------------|
B|-------------------------|-------------------------|
G|-7-----------------------|-------------------------|
D|-7-----7-----------7-----|3-----3--------8--8p7-7--|
A|-5--------5-----5-----5--|3-----3-3-3-3--8--8p7-7--|
D|-------------------------|3-----3-3-3-3--8--8p7-7--|
                                  PM---|

[Chorus 2]

E|--------------------------|-------------------------|
B|--------------------------|-------------------------|
G|--------------------------|-------------------------|
D|-8--8--8-8-8--8--8--8-8-8-|8--8--8-8-8--8--8--8-8-8-|
A|-8--8--8-8-8--8--8--8-8-8-|8--8--8-8-8--8--8--8-8-8-|
D|-8--8--8-8-8--8--8--8-8-8-|8--8--8-8-8--8--8--8-8-8-|

E|------------------------------------|-------------------------|
B|------------------------------------|-------------------------|
G|-10--10--10-10-10--10--10--10-10-10-|7--7--7-7-7--7--7--------|
D|-10--10--10-10-10--10--10--10-10-10-|7--7--7-7-7--7--7--7--7--|
A|--8---8---8--8--8---8---8---8--8--8-|5--5--5-5-5--5--5--7--7--|
D|------------------------------------|-------------------7--7--|

E|--------------------------|-------------------------|
B|--------------------------|-------------------------|
G|--------------------------|-------------------------|
D|-8--8--8-8-8--8--8--8-8-8-|8--8--8-8-8--8--8--8-8-8-|
A|-8--8--8-8-8--8--8--8-8-8-|8--8--8-8-8--8--8--8-8-8-|
D|-8--8--8-8-8--8--8--8-8-8-|8--8--8-8-8--8--8--8-8-8-|

E|------------------------------------|---------------------|
B|------------------------------------|---------------------|
G|-10--10--10-10-10--10--10--10-10-10-|7-7-7-7-7-7-7--------|
D|-10--10--10-10-10--10--10--10-10-10-|7-7-7-7-7-7-7--7--7--|
A|--8---8---8--8--8---8---8---8--8--8-|5-5-5-5-5-5-5--7--7--|
D|------------------------------------|---------------7--7--|


[Bridge]

E|--------------------------------|-------------------------|
B|--------------------------------|-------------------------|
G|--------------------------------|-------------------------|
D|-0------------------------------|-------------------------|
A|-0------------------------------|-------------------------|
D|-0--0-0-0--0-0-0--0-0-0--0-0-0--|0-0-0--0-0-0--0-0-0--0-0-|
    PM---------------------------------------------------|

E|----------------------------------------------------------|
B|----------------------------------------------------------|
G|----------------------------------------------------------| (two guitars)
D|-2/3-3-3--3-3-3/5-5-5--5-5-5/7-7-7--7-7-7/8---8--8---8--8-|
A|-3/5-5-5--5-5-5/7-7-7--7-7-7/8-8-8--8-8-8/10-10-10--10-10-|
D|----------------------------------------------------------|


[Chorus 3]

E|--------------------------|-------------------------|
B|--------------------------|-------------------------|
G|--------------------------|-------------------------|
D|-8--8--8-8-8--8--8--8-8-8-|8--8--8-8-8--8--8--8-8-8-|
A|-8--8--8-8-8--8--8--8-8-8-|8--8--8-8-8--8--8--8-8-8-|
D|-8--8--8-8-8--8--8--8-8-8-|8--8--8-8-8--8--8--8-8-8-|
                                                                 Play
E|------------------------------------|-------------------------|   3x
B|------------------------------------|-------------------------|
G|-10--10--10-10-10--10--10--10-10-10-|7--7--7-7-7--7--7--------|
D|-10--10--10-10-10--10--10--10-10-10-|7--7--7-7-7--7--7--7--7--|
A|--8---8---8--8--8---8---8---8--8--8-|5--5--5-5-5--5--5--7--7--|
D|------------------------------------|-------------------7--7--|

E|--------------------------|-------------------------|
B|--------------------------|-------------------------|
G|--------------------------|-------------------------|
D|-8--8--8-8-8--8--8--8-8-8-|8--8--8-8-8--8--8--8-8-8-|
A|-8--8--8-8-8--8--8--8-8-8-|8--8--8-8-8--8--8--8-8-8-|
D|-8--8--8-8-8--8--8--8-8-8-|8--8--8-8-8--8--8--8-8-8-|

E|------------------------------------|---------------------|
B|------------------------------------|---------------------|
G|-10--10--10-10-10--10--10--10-10-10-|7-7-7-7-7-7-7--------|
D|-10--10--10-10-10--10--10--10-10-10-|7-7-7-7-7-7-7--7--7--|
A|--8---8---8--8--8---8---8---8--8--8-|5-5-5-5-5-5-5--7--7--|
D|------------------------------------|---------------7--7--|


[Outro]

E|--------------------------------|-------------------------|
B|--------------------------------|-------------------------|
G|--------------------------------|-------------------------|
D|-0------------------------------|-------------------------|
A|-0------------------------------|-------------------------|
D|-0--0-0-0--0-0-0--0-0-0--0-0-0--|0-0-0--0-0-0--0-0-0--0-0-|
    PM---------------------------------------------------|

E|--------------------------------------------------------|
B|--------------------------------------------------------|
G|--------------------------------------------------------| (two guitars)
D|-2/3-3-3--3-3-3/5-5-5--5-5-5/7-7-7--7-7-7/8---8--8--7-5-|
A|-3/5-5-5--5-5-5/7-7-7--7-7-7/8-8-8--8-8-8/10-10-10--8-7-|
D|--------------------------------------------------------|


Guitar 1
E|--------------------------------|-------------------------|
B|--------------------------------|-------------------------|
G|--------------------------------|-------------------------|
D|--------------------------------|-------------------------|
A|--------------------------------|-------------------------|
D|-0--0-0-0--0-0-0--0-0-0--0-0-0--|0-0-0--0-0-0--0-0-0--0-0-|
 PM------------------------------------------------------|
                                                              Play 2x
E|--------------------------------|-------------------------|
B|--------------------------------|-------------------------|
G|--------------------------------|-------------------------|
D|--------------------------------|-------------------------|
A|--------------------------------|-------------------------|
D|-1--1-1-1--1-1-1--1-1-1--1-1-1--|1-1-1--1-1-1--1-1-1--1-1-|
 PM------------------------------------------------------|


Guitar 2
E|-----------------|----------------|-----------------|----------------|
B|-----------------|----------------|-----------------|----------------|
G|-----------------|----------------|-----------------|----------------|
D|------14---------|---14-----------|-15--------17--15|---14------------|
A|-12--------12--12|---------12--13--|------13---------|----------------|
D|-----------------|----------------|-----------------|----------------|

E|-----------------|-----------------|------------------|--------------|
B|-----------------|-----------------|------------------|--------------|
G|-----------------|-----------------|------------------|--------------|
D|------14---------|---14------------|------------------|--------------|
A|-12--------12--12|--------12--12h13|--12h13---10-12-13|-----12----10-|
D|-----------------|-----------------|------------------|--------------|


Both guitars
E|-----------------------|
B|-----------------------|
G|-----------------------|
D|-0---------------------|
A|-0---------------------|
D|-0---------------------|

Hope that's good. Sounds right to me



************************************

| x  Dead note
| h  Hammer-on
| p  Pull-off
| /  Slide up
| PM Palm Mute

************************************

            
            
Suggest correction
Creating personal tab
Creating personal tab
You can edit any tab online and save it as your Personal.

You can edit, replace or remove any tab part or add personal notes – all changes will be seen only by you.

Personal tabs can be accessed anytime from any device, even offline.
Learn more »
comments
print report bad tab
10 comments total. Showing first comments.
+8 reply
giggidy520 41 Mar 13, 2010 01:28 PM

just got done playing along to the song with your tab and it sounds awesome man. ****ing bravo man.

+3 reply
metallicrocks 10 Jan 12, 2011 11:38 AM

nice!! it sounds great. thx for the tab

+1 reply
Chridorn 10 Dec 03, 2013 03:22 PM

Love Volbeat, it's really hard to find good tabs for them, thank you man

guest
You may want to rate the tab now too:
select rating
Wanna post a correction for this tab? Suggest correction