Oops, an error
Loading. Please wait.

Diferente bass

by Voltio
23 views 1 this week
no commentswrite comment
1 2 3 4 5
3 more votes to show rating
add to favorites
×
Save as Personal and add changes to this tab that will be seen only by you. Learn more ›
×
You can save this tab as Personal to edit and correct it or add notes. All changes will be seen only by you. Learn more »
launch autoscroll
font size
0
reset
guitar tuner
edit
Autoscroll
slow
fast
+/-
esc
set tempo
stop
A:-----------------------
E:----33----33---33------

G:-------4-----5---------
D:-----------------------
A:---22----33------------
E:-----------------------

esta parte es el principio de la rola y se repite 2 veces

terminando sigue esto...

G:---------------------------
D:---------------------------
A:--------------2-22--3-333--
E:---3-33--0-00--------------

(esta parte la toca casi todo el tiempo)

********************************************************

despues viene un paron y es como si volviera a empezar....


A:-----------------------
E:----33----33---33------

G:-------4-----5---------
D:-----------------------
A:---22----33------------
E:-----------------------      x2


G:---------------------------
D:---------------------------
A:--------------2-22--3-333--
E:---3-33--0-00--------------

x muchas veces hasta donde dice...
"es mejor no estar bieeeeeeen..."

A:---2-------

despues de eso hay un cambio facil...

G:------------------------------------------
D:------------------------------------------
A:---22---3-3333333333333-22-0-0000000000000
E:------------------------------------------

x varias veces...

luego hace otro cambio

G:---------------------------------------------------
D:----0-000000000--22--3-33333333333--22--00000000000
A:---------------------------------------------------
E:---------------------------------------------------

G:--------------------------------
D:----0---------------------------
A:------3-2------------2-22--3-333
E:----------3-33--0-00------------

asi es hasta que se acaba...
G:---------------------------
D:---------------------------
A:--------------2-22--3-333--
E:---3-33--0-00--------------

E:------3-----


la rola esta completa y sin fallas...
la neta no esta dificil...

arre.....


apoyen el rock mexicano

            
            
Suggest correction
Creating personal tab
Creating personal tab
You can edit any tab online and save it as your Personal.

You can edit, replace or remove any tab part or add personal notes – all changes will be seen only by you.

Personal tabs can be accessed anytime from any device, even offline.
Learn more »
Give kudos to tab author, rate the tab!
1 2 3 4 5
comments
print report bad tab
guest
Wanna post a correction for this tab? Suggest correction