Oops, an error
Loading. Please wait.

Hollywood tab

28 views 3 this week
no commentswrite comment
1 2 3 4 5
3 more votes to show rating
add to favorites
×
Save as Personal and add changes to this tab that will be seen only by you. Learn more ›
×
You can save this tab as Personal to edit and correct it or add notes. All changes will be seen only by you. Learn more »
launch autoscroll
font size
0
reset
how to read this tab
guitar tuner
edit
Autoscroll
slow
fast
+/-
esc
set tempo
stop
riff de introducción:
     C        E7        F         E
e----0-0-0----0--0-0----1--1-1----0--0-0----------| x3
B----1-1-1----0--0-0----1--1-1----0--0-0----------|
G----0-0-0----1--1-1----2--2-2----1--1-1----------|
D----2-2-2----0--0-0----3--3-3----2--2-2----------|
A----3-3-3----2--2-2----3--3-3----2--2-2----------|
E----3-3-3----0--0-0----1--1-1----0--0-0----------|


Verso:

C                    F
  Ella era el ángel
                      C
  de padres antiguos.
                   F
  Ella pintaba mariposas.
                                    riffs de fondo:
C                  F             C          C               Am               Dm               B=bend           ||x2
  Andar en limousine.            C               Am               Dm               C            C        E7        F         E
e----0-0-0----0--0-0----1--1-1----0--0-0----------| x2
B----1-1-1----0--0-0----1--1-1----0--0-0----------|
G----0-0-0----1--1-1----2--2-2----1--1-1----------|
D----2-2-2----0--0-0----3--3-3----2--2-2----------|
A----3-3-3----2--2-2----3--3-3----2--2-2----------|
E----3-3-3----0--0-0----1--1-1----0--0-0----------|


Verso:

C                  F
  Juan era fuerte
                  C
  tenía promesas
                           F
  Conoció a Nicole en la última fiesta
        C-C                                  riffs de fondo:
  y sus ojos, conectaron                  F-F                                F                  F(x6)


Break: -hey,hey,hey, baby, you got potential, call me-


Coro:

C               Am               Dm               B=bend           ||x2
  Andar en limousine.            C               Am               Dm               C            F     F-E Dm
  Vivir en Holywood.
                    C
  Ella quiere ser feliz.
                F    F-E Dm
  Vivir en Hollywood.
                      C
  Ellos quieren ser feliz.


riff de salida:
e----0---0---0-0---0---0---0-0------|x2
B----1---1---1-1---1---1---1-1------|
G----0---0---0-0---0---0---0-0------|
D----2---2---2-2---2---2---2-2------|
A----3---3---3-3---3---3---3-3------|
E----3---3---3-3---3---3---3-3------|


Para tocar los riffs de fondo basta con escuchar la rola y darle a los tiempos, 
está en corto sacarla. También se puede tocar con power chords pero como que se 
escucha más lleno el sonido con esta transcripción.
icq: 112899266

            
            
Suggest correction
Creating personal tab
Creating personal tab
You can edit any tab online and save it as your Personal.

You can edit, replace or remove any tab part or add personal notes – all changes will be seen only by you.

Personal tabs can be accessed anytime from any device, even offline.
Learn more »
Give kudos to tab author, rate the tab!
1 2 3 4 5
comments
print report bad tab
guest
Wanna post a correction for this tab? Suggest correction