Oops, an error
Loading. Please wait.

Gente Animal tab

41 views 1 this week
no commentswrite comment
1 2 3 4 5
3 more votes to show rating
add to favorites
×
Save as Personal and add changes to this tab that will be seen only by you. Learn more ›
×
You can save this tab as Personal to edit and correct it or add notes. All changes will be seen only by you. Learn more »
launch autoscroll
font size
0
reset
how to read this tab
guitar tuner
edit
Autoscroll
slow
fast
+/-
esc
set tempo
stop
LARGA VIDA A LOS GORDOX!!! DEL FERCH!!!

INTRO (REPETIR 4 VESES)
        (X 3)
E|------------------|-----------------|-----------------
B|------------------|-----------------|-----------------
G|------------------|-----------------|-----------------
D|------------------|-----------------|-----------------
A|--7-7-7-7-7-7--10-|-5-5-5-5-5-5--10-|-7-7-7-7-7-7--10-
E|-/5-5-5-5-5-5--8--|-3-3-3-3-3-3--8--|-5-5-5-5-5-5--8--

?POR QUE LA GENTE ME ENVIDIA
SON ESTUPIDECES
ME HACEN A UN LADO
SOLO PIENSAN EN ELLOS
        (X 3)
E|------------------|-----------------|-----------------
B|------------------|-----------------|-----------------
G|------------------|-----------------|-----------------
D|------------------|-----------------|-----------------
A|--7-7-7-7-7-7--10-|-5-5-5-5-5-5--10-|-7-7-7-7-7-7--10-
E|-/5-5-5-5-5-5--8--|-3-3-3-3-3-3--8--|-5-5-5-5-5-5--8--

?SOLO PIENSAN EN MOLESTARME
CREEN QUE LOS VOY A SOPORTAR
GENTE INSOPORTABLE
QUIEREN MOLESTARME
        (X 3)
E|------------------|-----------------|-----------------
B|------------------|-----------------|-----------------
G|------------------|-----------------|-----------------
D|------------------|-----------------|-----------------
A|--7-7-7-7-7-7--10-|-5-5-5-5-5-5--10-|-7-7-7-7-7-7--10-
E|-/5-5-5-5-5-5--8--|-3-3-3-3-3-3--8--|-5-5-5-5-5-5--8--

..HASTA ME DICEN QUE ME GUSTA LA MALA VIDA
QUE PROTESTAMOS SIN SENTIDO
QUE NO VUELVA A PROTESTAR
        (X 3)
E|------------------|-----------------|-----------------
B|------------------|-----------------|-----------------
G|------------------|-----------------|-----------------
D|------------------|-----------------|-----------------
A|--7-7-7-7-7-7--10-|-5-5-5-5-5-5--10-|-7-7-7-7-7-7--10-
E|-/5-5-5-5-5-5--8--|-3-3-3-3-3-3--8--|-5-5-5-5-5-5--8--

Solo??..
E|---------------------------------------------------------
B|---------------------------10-8--------------------------
G|---------5-7-5-----5-7/9-99----9-7-5-5/9-7-5---5-7-5-7/9-
D|-----5-7-------7-7---------------------------7-----------
A|-5-7-----------------------------------------------------
E|---------------------------------------------------------

----------------------------------------------------------------
--8-8-10-8-8-10-10-10-10-10-10-10-10--8h10-8--------------------
-9-9------9---------------------------------9-7b-5-7-5----------
-------------------------------------------------------7b-7-5-7-
----------------------------------------------------------------
----------------------------------------------------------------

ME MANDAN A CALLAR
YA NO PUEDO SOPORTAR
Y LA MUERTE ME AYUDARA
PERO VUELVO A DESPERTAR
        (X 3)
E|------------------|-----------------|-----------------
B|------------------|-----------------|-----------------
G|------------------|-----------------|-----------------
D|------------------|-----------------|-----------------
A|--7-7-7-7-7-7--10-|-5-5-5-5-5-5--10-|-7-7-7-7-7-7--10-
E|-/5-5-5-5-5-5--8--|-3-3-3-3-3-3--8--|-5-5-5-5-5-5--8--

PARA TRABAJAR COMO BESTIA
Y SER EXPLOTADO Y MARGINADO
POR GENTE ANIMAL
SON UN ASCO
SON UN ASCO
¡SON UN ASCO!
        (X 3)
E|------------------|-----------------|-----------------
B|------------------|-----------------|-----------------
G|------------------|-----------------|-----------------
D|------------------|-----------------|-----------------
A|--7-7-7-7-7-7--10-|-5-5-5-5-5-5--10-|-7-7-7-7-7-7--10-
E|-/5-5-5-5-5-5--8--|-3-3-3-3-3-3--8--|-5-5-5-5-5-5--8--

            
            
Suggest correction
Creating personal tab
Creating personal tab
You can edit any tab online and save it as your Personal.

You can edit, replace or remove any tab part or add personal notes – all changes will be seen only by you.

Personal tabs can be accessed anytime from any device, even offline.
Learn more »
Give kudos to tab author, rate the tab!
1 2 3 4 5
comments
print report bad tab
guest
Wanna post a correction for this tab? Suggest correction