Oops, an error
Loading. Please wait.

Moises tab

version 2
version 2

Whole song

by Vox Dei
40 views 1 this week
no commentswrite comment
1 2 3 4 5
3 more votes to show rating
add to favorites
×
Save as Personal and add changes to this tab that will be seen only by you. Learn more ›
×
You can save this tab as Personal to edit and correct it or add notes. All changes will be seen only by you. Learn more »
launch autoscroll
font size
0
reset
how to read this tab
guitar tuner
edit
Autoscroll
slow
fast
+/-
esc
set tempo
stop
Intro:


  Guitarra 1 (fig 1):
e|-2-----2---------|-2-----2---------|-2-----2---------|-2-----2---------|
B|-3-3-----3---3---|-3-3-----3---3---|-3-3-----3---3---|-3-3-------------|
G|-2---2-----2---2-|-2---2-----2---2-|-2---2-----2---2-|-2---2-----------|
D|-0---------------|-0---------------|-0---------------|-0---------------|
A|-----------------|-----------------|-----------------|-----------------|
E|-----------------|-----------------|-----------------|-----------------|
 |
 |Guitarra 2 (fig 2):
e|-----------3p2-3-|-5-----5---3p2-3-|-2---------------|-----------------|
B|-----------------|-----------------|---------------3-|---3-------------|
G|-----------------|-----------------|--------------2--|-----2-----------|
D|-----------------|-----------------|-------------0---|-----------------|
A|-----------------|-----------------|-----------------|-----------------|
E|-----------------|-----------------|-----------------|-----------------|
 |
 |Guitarra 3
e|-----------------|-----------------|-----------------|-------------8p7-|
B|-----------------|-----------------|-----------------|-----------------|
G|-----------------|-----------------|-----------------|-----------------|
D|-----------------|-----------------|-----------------|-----------------|
A|-----------------|-----------------|-----------------|-----------------|
E|-----------------|-----------------|-----------------|-----------------|


  Guitarra 1 (fig 1)
  Guitarra 2 (fig 2)
  Guitarra 3:
e|-8-7-8-7-8-7-8-7--8-7-|-8-7-8-7-8-7-8-7--8-7-|
B|----------------------|----------------------|
G|----------------------|----------------------|
D|----------------------|----------------------|
A|----------------------|----------------------|
E|----------------------|----------------------|

e|-5---3---2---3--2p0---|------------------8p7-|
B|--------------------3-|----------------------|
G|----------------------|----------------------|
D|----------------------|----------------------|
A|----------------------|----------------------|
E|----------------------|----------------------|


  Guitarra 1 (fig 1)
  Guitarra 2:
e|----2-2-2-----------2-|-3/5-5-5--------------|
B|---3------------------|----------------------|
G|----------------------|----------------------|
D|----------------------|----------------------|
A|----------------------|----------------------|
E|----------------------|----------------------|
 |
 |Guitarra 3:
e|-8-7-8-7-8-7-8-7--8-7-|-8-7-8-7-8-7-8-7--8-7-|
B|----------------------|----------------------|
G|----------------------|----------------------|
D|----------------------|----------------------|
A|----------------------|----------------------|
E|----------------------|----------------------|


  Guitarra 2:
e|---3-3/2----2-2-2h3p2-|--------------------2-|
B|-------------3--------|-3----------------3---|
G|----------------------|----------------------|
D|----------------------|----------------------|
A|----------------------|----------------------|
E|----------------------|----------------------|
 |
 |Guitarra 3:
e|-8-7-8-7-8-7------2---|----------------------|
B|-------------------3--|----------------------|
G|--------------------2-|----------------------|
D|----------------------|-0--------------------|
A|----------------------|----------------------|
E|----------------------|----------------------|

  Guitarra 1 (fig 1)
  Guitarra 2:
e|-------------3p2--|----------------2-|------------3p2h3-|--------------|
B|-3----------------|-3----------------|-3----------------|-3------------|
G|------------------|------------------|------------------|--------------|
D|------------------|------------------|------------------|--------------|
A|------------------|------------------|------------------|--------------|
E|------------------|------------------|------------------|--------------|

Verso 1:

  Guitarra 1 (fig 1)
  Guitarra 2:
e|----------------------------2-|----------------------|
B|------------------------------|-3--------------------|
G|------------------------------|----------------------|
D|------------------------------|----------------------|
A|------------------------------|----------------------|
E|------------------------------|----------------------|
  Niño que flotas en las aguas    Niño niño niño niño

e|------------------------------2-|---------------------------|
B|-----------------------------3--|---------------------------|
G|--------------------------------|---------------------------|
D|--------------------------------|---------------------------|
A|--------------------------------|---------------------------|
E|--------------------------------|---------------------------|
  Niño que te salvan de las aguas  Porque te salvan? Niño niño


  Guitarra 1 (fig 1)
  Guitarra 2:
e|----------------------|------------------2---|
B|----------------------|-------------------3--|
G|----------------------|--------------------2-|
D|----------------------|----------------------|
A|----------------------|----------------------|
E|----------------------|----------------------|
 |
 |Guitarra 3:
e|-8-7-8-7-8-7-8-7--8-7-|-8-7-8-7-8-7-8-7--8-7-|
B|----------------------|----------------------|
G|----------------------|----------------------|
D|----------------------|----------------------|
A|----------------------|----------------------|
E|----------------------|----------------------|


  Guitarra 2:
e|-2h3h2--------------2-|----------------------|
B|------3-----------3---|-3--------------------|
G|----------------------|----------------------|
D|----------------------|----------------------|
A|----------------------|----------------------|
E|----------------------|----------------------|
 |
 |Guitarra 3:
e|-5--3--2--3-----2p0---|--------------------2-|
B|--------------------3-|---------------3p1-3--|
G|----------------------|----------------------|
D|----------------------|----------------------|
A|----------------------|----------------------|
E|----------------------|----------------------|


  Guitarra 1 (fig 1)
  Guitarra 2:
e|----------------------|----------------------|
B|----------------------|----------------------|
G|-6h7p6h7p6h7----------|----------------------|
D|----------------------|----------------------|
A|----------------------|----------------------|
E|----------------------|----------------------|
 |
 |Guitarra 3:
e|----2---------------2-|-2---------------2----|
B|-3--------------3-3---|---------------3------|
G|-----------------2----|----------------2-----|
D|----------------------|-----------------0----|
A|----------------------|----------------------|
E|----------------------|----------------------|

  Guitarra 2:
e|----------------------|----------------------|
B|----------------------|----------------------|
G|-6h7p6h7p6h7----------|----------------------|
D|----------------------|----------------------|
A|----------------------|----------------------|
E|----------------------|----------------------|
 |
 |Guitarra 3:
e|-2---------2----------|-2-2-3-3--------------|
B|-3---------3----------|-3-3-3-3--------------|
G|-2---------2----------|-2-2-2-2--------------|
D|----------------------|----------------------|
A|----------------------|----------------------|
E|----------------------|----------------------|

Verso 2:

  Guitarra 1 (fig 1)
  Guitarra 2:
e|------------------------|------------------------2-2--2-|
B|------------------------|-------------------------------|
G|------------------------|-------------------------------|
D|------------------------|-------------------------------|
A|------------------------|-------------------------------|
E|------------------------|-------------------------------|
  De donde traes ese niño  De donde lo traes dimelo dimelo

e|--------------------2--2--|-----------------2----|
B|--------------------------|----------------------|
G|--------------------------|----------------------|
D|--------------------------|----------------------|
A|--------------------------|----------------------|
E|--------------------------|----------------------|
  Aguas frescas para un niño frio niño, tibio niño

  Guitarra 1 (fig 1)
  Guitarra 2:
e|----------------------|-3/5------------------|
B|----------------------|----------------------|
G|----------------------|----------------------|
D|----------------------|----------------------|
A|----------------------|----------------------|
E|----------------------|----------------------|
 |
 |Guitarra 3:
e|-----8-7-8-7-8-8-8/10-|-5--3--2--3----2p0----|
B|----------------------|-------------------3--|
G|----------------------|----------------------|
D|----------------------|----------------------|
A|----------------------|----------------------|
E|----------------------|----------------------|

  Guitarra 2:
e|----------------2h3-2-|----------------3p2-3-|
B|----------------------|-3--------------------|
G|----------------------|----------------------|
D|----------------------|----------------------|
A|----------------------|----------------------|
E|----------------------|----------------------|
 |
 |Guitarra 3:
e|-3/5-53--------------|----------------------|
B|----------------------|----------------------|
G|----------------------|----------------------|
D|----------------------|----------------------|
A|----------------------|----------------------|
E|----------------------|----------------------|


  Guitarra 1 (fig 1)
  Guitarra 2:
e|-----2----------------|-----2----------3p2-3-|
B|-3--------------------|----------------------|
G|----------------------|----------------------|
D|----------------------|----------------------|
A|----------------------|----------------------|
E|----------------------|----------------------|
 |
 |Guitarra 3:
e|-8-7-8-8-8-8-8--------|-8-8-8-8-8-8-8-8------|
B|----------------------|----------------------|
G|----------------------|----------------------|
D|----------------------|----------------------|
A|----------------------|----------------------|
E|----------------------|----------------------|

  Guitarra 2:
e|-------2--------3p2-3-|---2-2-2--------------|
B|----------------------|-3--------------------|
G|----------------------|----------------------|
D|----------------------|----------------------|
A|----------------------|----------------------|
E|----------------------|----------------------|
 |
 |Guitarra 3:
e|----------------------|----------------------|
B|----------------------|----------------------|
G|----------------------|----------------------|
D|----------------------|----------------------|
A|----------------------|----------------------|
E|----------------------|----------------------|


Verso 3:

Guitarra 1 (fig 1)

Porque te salvan niño del rio? es que quizas no debas morir
Porque te salvan niño del rio? es que quizas debas vivir


  Guitarra 1 (fig 1)
  Guitarra 2:
e|-2------------------------|-2------------------------|
B|-3------------------------|-3------------------------|
G|-2------------------------|-2------------------------|
D|--------------------------|--------------------------|
A|--------------------------|--------------------------|
E|--------------------------|--------------------------|
  Aguas frescas para un niño Aguas frescas desde el rio


e|-2------------------------|-2--------------------|
B|-3------------------------|-3--------------------|
G|-2------------------------|-2--------------------|
D|--------------------------|----------------------|
A|--------------------------|----------------------|
E|--------------------------|----------------------|
  Aguas frescas para un niño Aguas frescas desde el rio


  Guitarra 1 (fig 1)
  Guitarra 2:
e|-2-2-2-2/3-3-3/5-5----|-3-2-3-2h3p2----------|
B|----------------------|------------3-3-------|
G|----------------------|----------------------|
D|----------------------|----------------------|
A|----------------------|----------------------|
E|----------------------|----------------------|
 |
 |Guitarra 3:
e|-8-7-8-7-8-7-8-7--8-7-|-8-7-8-7-8-7-8-7--8-7-|
B|----------------------|----------------------|
G|----------------------|----------------------|
D|----------------------|----------------------|
A|----------------------|----------------------|
E|----------------------|----------------------|


  Guitarra 2:
e|----------------------|----------------------|
B|-3-0h1p0---1/3--------|-0h1p0-0-1/3----------|
G|---------2------------|------2---------------|
D|----------------------|----------------------|
A|----------------------|----------------------|
E|----------------------|----------------------|
 |
 |Guitarra 3:
e|-5--3--2--3-----2p0---|----------------------|
B|--------------------3-|----------------------|
G|----------------------|----------------------|
D|----------------------|----------------------|
A|----------------------|----------------------|
E|----------------------|----------------------|


  Guitarra 1 (fig 1)
  Guitarra 2:
e|-2-2-2--2-3-/-5-------|-2-2-2--2-3-/-5-------|
B|----------------------|----------------------|
G|----------------------|----------------------|
D|----------------------|----------------------|
A|----------------------|----------------------|
E|----------------------|----------------------|
 |
 |Guitarra 3:
e|-8-7-8-7-8-7-8-7--8-7-|-8-7-8-7-8-7-8-7--8-7-|
B|----------------------|----------------------|
G|----------------------|----------------------|
D|----------------------|----------------------|
A|----------------------|----------------------|
E|----------------------|----------------------|


  Guitarra 2:
e|-2-2-2--2-3-/-5-------|-2-2-2--2-3-/-5-------|
B|----------------------|----------------------|
G|----------------------|----------------------|
D|----------------------|----------------------|
A|----------------------|----------------------|
E|----------------------|----------------------|
 |
 |Guitarra 3:
e|-5--3--2--3-----2p0---|----------------------|
B|--------------------3-|---1-/-3--------------|
G|----------------------|-2--------------------|
D|----------------------|----------------------|
A|----------------------|----------------------|
E|----------------------|----------------------|
                           Aqui entra la bateria


Intermedio 1:

Tiempos del compas
________________/
         |
  1   2   3   4   1   2   3   4   1   2   3   4   1   2   3   4
e|---------------|---------------|---------------|---------------|
B|7---5-2--------|------2--------|7---5-7-/-10---|--12--10--2----|
G|7---5-2---4----|--1-4-2--------|7---5-7-/-10---|--12--10--2----|
D|7---5-2---5----|--2-5-2--------|7---5-7-/-10---|--12--10--2----|
A|5---3-0---5----|--2-5-0--------|5---3-5-/-8----|--10--8---0----|
E|----------3----|--0-3----------|---------------|---------------|x2


 D
Ahora que eres hombre
       C
yo te llamo para darte
D
Un grande mensaje
         C
que a la gente debes dar
D
Ve y vuelve pronto
       C
que te espero para hablarte
D
ya llego el momento
       C
nos tenemos que encontrar

Solo:

e|------------------|
B|------------------|
G|------------------|
D|------------------|
A|------------------|
E|------------------|

D
No debes buscarme
        C
Yo estaré en cualquier parte
D                C
Pabababababa Pabababa Pabababa
D                C
Pabababababa Pabababa Pababa
D
Ya llegó el momento
       C
nos tenemos que encontrar

e|---------------|---------------|---------------|---------------|
B|7---5-2--------|------2--------|7---5-7-/-10---|--12--10--2----|
G|7---5-2---4----|--1-4-2--------|7---5-7-/-10---|--12--10--2----|
D|7---5-2---5----|--2-5-2--------|7---5-7-/-10---|--12--10--2----|
A|5---3-0---5----|--2-5-0--------|5---3-5-/-8----|--10--8---0----|
E|----------3----|--0-3----------|---------------|---------------|x2
            Aaaaaaaaah!!!

Intermedio 2:

   D
e|-------------------|
B|-------8p7-7-------|
G|-----7-------7---7-|
D|---7-----------7---|
A|-5-----------------|
E|-------------------|x4

  C7                D                 C7                D
e|-----5-----------|---------5-------|---------5--3----|-----------------|
B|5----------5-----|------7-----7----|------5----------|7-----7--7--7----|
G|3-------3--------|---7-----------7-|3--3-------------|7-----7--7--7----|
D|5----------------|7----------------|5----------------|7-----7--7--7----|
A|3----------------|5----------------|3----------------|5----------------|
E|-----------------|-----------------|-----------------|-----------------|

  C7                D                 C7                D
e|-----------3-----|---------5-------|---------5--3----|-----------------|
B|5-------5--------|------7-----7----|------5----------|------7--8--7----|
G|3----3-----------|---7-------------|3--3-------------|---7-------------|
D|5----------------|7----------------|5----------------|7----------------|
A|3----------------|5----------------|3----------------|5----------------|
E|-----------------|-----------------|-----------------|-----------------|

  C7                D                 Eb                E
e|-------3---------|-----------------|-----------------|-----------------|
B|-----5---5-------|---------7--8--7-|------8----------|------9----------|
G|---3-------------|------7----------|----8-----8------|----9------9-----|
D|5----------------|7--7-------------|--8---------8----|--9----------9---|
A|3----------------|5----------------|6----------------|7----------------|
E|-----------------|-----------------|-----------------|-----------------|

  Fm                F#                Gm                G#
e|--------8--------|-----------------|--------10-------|-----------------|
B|------------9----|--------11-------|------------11---|--------13-------|
G|-----10-------10-|-----11-----11---|-----12-------12-|-----13-----13---|
D|--10-------------|--11----------11-|--12-------------|--13----------13-|
A|8----------------|9----------------|10---------------|11---------------|
E|-----------------|-----------------|-----------------|-----------------|

  Am                Bb                Bm                C
e|--------12-------|-----------------|14-------14------|-----------------|
B|------------13---|-------15--------|---15-------15---|------17---------|
G|-----14-------14-|-----15-----15---|--------------16-|----17--17-------|
D|--14-------------|---15---------15-|------16---------|--17------17-----|
A|12---------------|13---------------|-----------------|15----------15---|
E|-----------------|-----------------|-----------------|-----------------|

  C#m                D
e|16-----16--------|-----------------|
e|--17--------17---|-19--------------|
e|----18--------18-|-19--------------|
e|-----------------|-19--------------|
e|-----------------|-17--------------|
e|-----------------|-----------------|


D       |C        |A      |

D           C   D         C   D          C      D       C
Sol, que quiero verte, quiero verte y te voy a buscar
D           C   D         C      D       C       D      C
Sol, que quiero oirte, quiero oirte y te voy a escuchar
D           C   D         C      D       C       D      C
Sol, que quiero verte, quiero verte y te voy a buscar
D           C   D         C      D       C       D      C
Sol, que quiero oirte, quiero oirte y te voy a escuchar

D           C   D         C      D       C       D      C
SOL......       SOL....          SOL....         SOL.....

D                               C
Camino, camino, camino, camino, camino
D                               C
Camino, camino, camino, camino, camino
D                               C
Camino, camino, camino, camino, camino
D                               C
Camino, camino, camino, camino, camino

Final:

D               C
D               C
D               C

(Aca viene una variedad de efectos hasta que acaba el tema)


Hecho por Luis Loayza
LA Paz - Bolivia
Comentarios y correcciones:
louizloayza@

            
            
Suggest correction
Creating personal tab
Creating personal tab
You can edit any tab online and save it as your Personal.

You can edit, replace or remove any tab part or add personal notes – all changes will be seen only by you.

Personal tabs can be accessed anytime from any device, even offline.
Learn more »
Give kudos to tab author, rate the tab!
1 2 3 4 5
comments
print report bad tab
guest
Wanna post a correction for this tab? Suggest correction