Oops, an error
Loading. Please wait.

Vi La Luz chords

46 views 1 this week
no commentswrite comment
1 2 3 4 5
3 more votes to show rating
add to favorites
×
Save as Personal and add changes to this tab that will be seen only by you. Learn more ›
×
You can save this tab as Personal to edit and correct it or add notes. All changes will be seen only by you. Learn more »
launch autoscroll
font size
0
reset
transpose
0
reset
display chords
guitar tuner
edit
Autoscroll
slow
fast
+/-
esc
set tempo
stop
Strumming
There is no strumming pattern for this song yet. and get +5 IQ
Intro:
E |-----0---------------0---------------0------------------------2---|
B |--------4---------------4---------------4-----------------5-------|
G |-----------4---------------4---------------4----------4-----------|
D |----------------------------------------------------4-------------|
A |--2-------------0-------------------------------------------------|
E |---------------------------------4--------------------------------|
B                                    F#
    Cuando puedo contemplar al inmensidad
               G#m                      D#m
    y la hermosura de las cosas que me das
E                       B
    quiero hasta ti llegar mi buen Señor
    C#m                     F#
    en una canción de gratitud
B                      F#
    Siento que renace dentro de mí
    G#m                      E
    la confianza en el porvenir
     G#m         F#   E                        F#
    hoy creo en ti    eres la razón de mi existir
     D     A               Bm      A
    Vi la luz de un nuevo día
           G           Em            D A
    cuando escuche tu voz que me llamaba
     D    A              Bm       A
    conocí el azul del cielo
          G           A   D
    y un mundo nuevo de amor

E |-----3--2-----------3--2----------3--2--------------------2---|
B |-----------3--------------3-------------3---------------5-----|
G |------------------------------------------------------4-------|
D |-0------------------------------------------------4-----------|
A |----------------3--------------2------------------------------|
E |--------------------------------------------------------------|
Vuelve al intro y misma secuencia

Por tu creación te doy gracias señor
Ha llenado mi ser con tu inmenso amor
Siento la risa de un niño al jugar
Y de un pajarillo su cantar
Siento que renace??

Las notas en el solo:  Bm    A    Bm   A   G    Em   G   A

            
            
Suggest correction
Creating personal tab
Creating personal tab
You can edit any tab online and save it as your Personal.

You can edit, replace or remove any tab part or add personal notes – all changes will be seen only by you.

Personal tabs can be accessed anytime from any device, even offline.
Learn more »
Give kudos to tab author, rate the tab!
1 2 3 4 5
comments
print report bad tab
guest
Wanna post a correction for this tab? Suggest correction