Oops, an error
Loading. Please wait.

Blind In Texas bass

version 1
version 1

Whole song

Interactive

3,352 views 1 this week
2 commentsread comments
1 2 3 4 5
x 3
add to favorites
×
Save as Personal and add changes to this tab that will be seen only by you. Learn more ›
×
You can save this tab as Personal to edit and correct it or add notes. All changes will be seen only by you. Learn more »
launch autoscroll
font size
0
reset
guitar tuner
backing track
0:00
0:00
edit
Autoscroll
slow
fast
+/-
esc
set tempo
stop
Author
Difficulty
Artist:W.A.S.P.
Song:Blind in Texas
Album:The Last Command
Bassist:Blackie Lawless
Tabber:Dev Fuld

This is an awesome tune by W.A.S.P. "Hey dude, let's party!"

Key:
x = times a number
* = let it ring

Intro
Gb:--------------|--------------|--------------|--------------|--|
Db:--------------|--------------|--------------|--------------|--|
Ab:---------5-5-5|---------5-5-5|---------5-5-5|---------5-5-5|--|
Eb:5*-3-3-3------|5*-3-3-3------|5*-3-3-3------|5*-3-3-3------|0*|

Verse
Gb:--------------------------|--------------------------|
Db:--------------------------|--------------------------|
Ab:-----5x16------7x8-5x8----|-----5x16------7x8-5x8----|
Eb:5x32------5x16--------5x16|5x32------5x16---------5x5|

Chorus
Gb:------------|------------|------------|-----------|
Db:------------|------------|------------|-----------|
Ab:----5x8-----|----5x8-----|----5x8-----|----5x8----|
Eb:3x8-----5x16|5x8-----5x16|3x8-----5x16|3x8-----0x8|

Verse

Chorus

Bridge
Gb:-----------------|
Db:-----------------|
Ab:-----------------|
Eb:0xthe whole thing|

Solo
Gb:---------|---------|---------|--------|
Db:---------|---------|---------|--------|
Ab:5x16-----|5x16-----|5x16-7x16|5x16----|
Eb:-----0x16|-----0x16|---------|-----5x9|

Verse

Bass and drum part
Gb:-------------------------------|
Db:-------------------------------|
Ab:--------5-5-555----------------|
Eb:3-3-333---------5-5-555-555-555|

Chorus

Intro

That's it. It's an awesome tune, so play it with some attitude. It is in the correct order 
so I made it easier for you, not like it was hard. Any questions or comments, e-mail me 
at rocklvson@yahoo.com

            
            
Suggest correction
Creating personal tab
Creating personal tab
You can edit any tab online and save it as your Personal.

You can edit, replace or remove any tab part or add personal notes – all changes will be seen only by you.

Personal tabs can be accessed anytime from any device, even offline.
Learn more »
Give kudos to tab author, rate the tab!
1 2 3 4 5
comments
print report bad tab
2 comments total.
-1 reply
WASP_God 155 May 05, 2010 10:24 AM

awesome mate another 5 star tab, tho i do reckon it sounds better if you play all the 5th fret Ab notes on the 4th fret instead, ie

The verse and chorus go from this;
Verse
Gb:--------------------------|--------------------------|
Db:--------------------------|--------------------------|
Ab:-----5x16------7x8-5x8----|-----5x16------7x8-5x8----|
Eb:5x32------5x16--------5x16|5x32------5x16---------5x5|

Chorus
Gb:------------|------------|------------|-----------|
Db:------------|------------|------------|-----------|
Ab:----5x8-----|----5x8-----|----5x8-----|----5x8----|
Eb:3x8-----5x16|5x8-----5x16|3x8-----5x16|3x8-----0x8|

To this;

Verse
Gb:--------------------------|--------------------------|
Db:--------------------------|--------------------------|
Ab:-----4x16------7x8-5x8----|-----4x16------7x8-5x8----|
Eb:5x32------5x16--------5x16|5x32------5x16---------5x5|

Chorus
Gb:------------|------------|------------|-----------|
Db:------------|------------|------------|-----------|
Ab:----4x8-----|----4x8-----|----4x8-----|----4x8----|
Eb:3x8-----5x16|5x8-----5x16|3x8-----5x16|3x8-----0x8|

-1 reply
WASP_God 155 May 05, 2010 10:26 AM

oh and on the bass and drum part

Bass and drum part
Gb:-------------------------------|
Db:-------------------------------|
Ab:--------4-4-444----------------|
Eb:3-3-333---------5-5-555-555-555|

just sounds slightly better i think

guest
You may want to rate the tab now too:
select rating
Wanna post a correction for this tab? Suggest correction