Oops, an error
Loading. Please wait.

Gold tab

version 4
version 4

Whole song

238 views 1 this week
no commentswrite comment
1 2 3 4 5
3 more votes to show rating
add to favorites
×
Save as Personal and add changes to this tab that will be seen only by you. Learn more ›
×
You can save this tab as Personal to edit and correct it or add notes. All changes will be seen only by you. Learn more »
launch autoscroll
font size
0
reset
how to read this tab
guitar tuner
edit
Autoscroll
slow
fast
+/-
esc
set tempo
stop
-------------------------------------
           Gold - Wake Owl
-------------------------------------
Tabbed by: nxpk

Capo II

Intro:

e|-----0-----0---------0-----0-----|-----0-----0---------0-----0-----|
B|---1-----1-----1---1-----1-----1-|---1-----1-----1---1-----1-----1-|
G|-2-----2-----2---2-----2-----2---|-0-----0-----0---0-----0-----0---|
D|---------------------------------|---------------------------------|
A|---------------------------------|---------------------------------|
E|---------------------------------|---------------------------------|

e|-----3-----3---------3-----3-----|-----0-----0---------0-----0-----|
B|---3-----3-----3---3-----3-----3-|---1-----1-----1---1-----1-----1-|
G|-4-----4-----4---4-----4-----4---|-2-----2-----2---2-----2-----2---|
D|---------------------------------|---------------------------------|
A|---------------------------------|---------------------------------|
E|---------------------------------|---------------------------------|

e|-----0-----0---------0-----0-----|-----0-----0---------0-----0-----|
B|---1-----1-----1---1-----1-----1-|---1-----1-----1---1-----1-----1-|
G|-2-----2-----2---2-----2-----2---|-0-----0-----0---0-----0-----0---|
D|---------------------------------|---------------------------------|
A|---------------------------------|---------------------------------|
E|---------------------------------|---------------------------------|

e|-----3-----3---------3-----3-----|-----0-----0---------0-----0-----|
B|---3-----3-----3---3-----3-----3-|---1-----1-----1---1-----1-----1-|
G|-4-----4-----4---4-----4-----4---|-2-----2-----2---2-----2-----2---|
D|---------------------------------|---------------------------------|
A|---------------------------------|---------------------------------|
E|---------------------------------|---------------------------------|

1st verse

   So,             didn't you find  love         or  salvation
e|-----0-----0---------0-----0-----|-----0-----0---------0-----0-----|
B|---1-----1-----1---1-----1-----1-|---1-----1-----1---1-----1-----1-|
G|-2-----2-----2---2-----2-----2---|-0-----0-----0---0-----0-----0---|
D|---------------------------------|---------------------------------|
A|---------------------------------|---------------------------------|
E|---------------------------------|---------------------------------|

                   in what they do
e|-----3-----3---------3-----3-----|-----0-----0---------0-----0-----|
B|---3-----3-----3---3-----3-----3-|---1-----1-----1---1-----1-----1-|
G|-4-----4-----4---4-----4-----4---|-2-----2-----2---2-----2-----2---|
D|---------------------------------|---------------------------------|
A|---------------------------------|---------------------------------|
E|---------------------------------|---------------------------------|

    A              heart is built of gold,            they fairies they are
e|-----0-----0---------0-----0-----|-----0-----0---------0-----0-----|
B|---1-----1-----1---1-----1-----1-|---1-----1-----1---1-----1-----1-|
G|-2-----2-----2---2-----2-----2---|-0-----0-----0---0-----0-----0---|
D|---------------------------------|---------------------------------|
A|---------------------------------|---------------------------------|
E|---------------------------------|---------------------------------|
 
   too,        its in the hands you hold
e|-----3-----3---------3-----3-----|-----1-----1---------1-----1-----|
B|---3-----3-----3---3-----3-----3-|---1-----1-----1---1-----1-----1-|
G|-4-----4-----4---4-----4-----4---|-2-----2-----2---2-----2-----2---|
D|---------------------------------|---------------------------------|
A|---------------------------------|---------------------------------|
E|---------------------------------|---------------------------------|

  how              long can we ignore,               we build a little more,
e|-----0-----0---------0-----0-----|-----0-----0---------0-----0-----|
B|---1-----1-----1---1-----1-----1-|---1-----1-----1---1-----1-----1-|
G|-2-----2-----2---2-----2-----2---|-0-----0-----0---0-----0-----0---|
D|---------------------------------|---------------------------------|
A|---------------------------------|---------------------------------|
E|---------------------------------|---------------------------------|

                 and then we break our truth
e|-----3-----3---------3-----3-----|-----1-----1---------1-----1-----|
B|---3-----3-----3---3-----3-----3-|---1-----1-----1---1-----1-----1-|
G|-4-----4-----4---4-----4-----4---|-2-----2-----2---2-----2-----2---|
D|---------------------------------|---------------------------------|
A|---------------------------------|---------------------------------|
E|---------------------------------|---------------------------------|

 Oooooo...               ...oo... ...O
e|-1---1---1---1-1---1-1---1-1-1-1-|-0---0---0---0-0---0-0---0-0-0-0-|
B|-1---1---1---1-1---1-1---1-1-1-1-|-1---1---1---1-1---1-1---1-1-1-1-|
G|-2---2---2---2-2---2-2---2-2-2-2-|-2---2---2---2-2---2-2---2-2-2-2-|
D|-3---3---3---3-3---3-3---3-3-3-3-|-2---2---2---2-2---2-2---2-2-2-2-|
A|-3---3---3---3-3---3-3---3-3-3-3-|-0---0---0---0-0---0-0---0-0-0-0-|
E|-1---1---1---1-1---1-1---1-1-1-1-|-0---0---0---0-0---0-0---0-0-0-0-|

 Oooooo...               ...oo... ...O

e|-0---0---0---0-0---0-0---0-0-0-0-|-1---1---1---1-1---1-1---1-1-1-1-|
B|-0---0---0---0-0---0-0---0-0-0-0-|-1---1---1---1-1---1-1---1-1-1-1-|
G|-0---0---0---0-0---0-0---0-0-0-0-|-2---2---2---2-2---2-2---2-2-2-2-|
D|-0---0---0---0-0---0-0---0-0-0-0-|-3---3---3---3-3---3-3---3-3-3-3-|
A|-2---2---2---2-2---2-2---2-2-2-2-|-3---3---3---3-3---3-3---3-3-3-3-|
E|-3---3---3---3-3---3-3---3-3-3-3-|-1---1---1---1-1---1-1---1-1-1-1-|

 Oooooo...               ...oo... ...O
e|-1---1---1---1-1---1-1---1-1-1-1-|-0---0---0---0-0---0-0---0-0-0-0-|
B|-1---1---1---1-1---1-1---1-1-1-1-|-1---1---1---1-1---1-1---1-1-1-1-|
G|-2---2---2---2-2---2-2---2-2-2-2-|-2---2---2---2-2---2-2---2-2-2-2-|
D|-3---3---3---3-3---3-3---3-3-3-3-|-2---2---2---2-2---2-2---2-2-2-2-|
A|-3---3---3---3-3---3-3---3-3-3-3-|-0---0---0---0-0---0-0---0-0-0-0-|
E|-1---1---1---1-1---1-1---1-1-1-1-|-0---0---0---0-0---0-0---0-0-0-0-|

 Oooooo...               ...oo... ...O

e|-0---0---0---0-0---0-0---0-0-0-0-|-0---0---0---0-0---0-0---0-0-0-0-|
B|-0---0---0---0-0---0-0---0-0-0-0-|-1---1---1---1-0---0-0---0-0-0-0-|
G|-0---0---0---0-0---0-0---0-0-0-0-|-2---2---2---2-0---0-0---0-0-0-0-|
D|-0---0---0---0-0---0-0---0-0-0-0-|-2---2---2---2-0---0-0---0-0-0-0-|
A|-2---2---2---2-2---2-2---2-2-2-2-|-0---0---0---0-2---2-2---2-2-2-2-|
E|-3---3---3---3-3---3-3---3-3-3-3-|-0---0---0---0-3---3-3---3-3-3-3-|

Chorus: x4

e|-1---1---1---1-0---0-0---0-0-0-0-|-0---0---0---0-0---0-0---0-0-0-0-|
B|-1---1---1---1-1---1-1---1-1-1-1-|-0---0---0---0-1---1-1---1-1-1-1-|
G|-2---2---2---2-0---0-0---0-0-0-0-|-0---0---0---0-2---2-2---2-2-2-2-|
D|-3---3---3---3-2---2-2---2-2-2-2-|-0---0---0---0-2---2-2---2-2-2-2-|
A|-3---3---3---3-3---3-3---3-3-3-3-|-2---2---2---2-0---0-0---0-0-0-0-|
E|-1---1---1---1-0---0-0-----------|-3---3---3---3-0---0-0---0-0-0-0-|

Bridge:

e|-1---1---1---1-1---1-1---1-1-1-1-|-1---1---1---1-1---1-1---1-1-1-1-|
B|-1---1---1---1-1---1-1---1-1-1-1-|-1---1---1---1-1---1-1---1-1-1-1-|
G|-2---2---2---2-2---2-2---2-2-2-2-|-2---2---2---2-2---2-2---2-2-2-2-|
D|-3---3---3---3-3---3-3---3-3-3-3-|-3---3---3---3-3---3-3---3-3-3-3-|
A|-3---3---3---3-3---3-3---3-3-3-3-|-3---3---3---3-3---3-3---3-3-3-3-|
E|-1---1---1---1-1---1-1---1-1-1-1-|-1---1---1---1-1---1-1---1-1-1-1-|

e|-0---0---0---0-0---0-0---0-0-0-0-|-0---0---0---0-0---0-0---0-0-0-0-|
B|-1---1---1---1-1---1-1---1-1-1-1-|-1---1---1---1-1---1-1---1-1-1-1-|
G|-2---2---2---2-2---2-2---2-2-2-2-|-0---0---0---0-0---0-0---0-0-0-0-|
D|-2---2---2---2-2---2-2---2-2-2-2-|-2---2---2---2-2---2-2---2-2-2-2-|
A|-0---0---0---0-0---0-0---0-0-0-0-|-3---3---3---3-3---3-3---3-3-3-3-|
E|-0---0---0---0-0---0-0---0-0-0-0-|---------------------------------|

e|-1---1-1-1---1-1---1-1-1-1-1-1-1-|-0-------0-0-0-0---0-0-0-0-0-0-0-|
B|-1---1-1-1---1-1---1-1-1-1-1-1-1-|-1-------1-1-1-0---0-0-0-0-0-0-0-|
G|-2---2-2-2---2-2---2-2-2-2-2-2-2-|-0-------0-0-0-0---0-0-0-0-0-0-0-|
D|-3---3-3-3---3-3---3-3-3-3-3-3-3-|-2-------2-2-2-0---0-0-0-0-0-0-0-|
A|-3---3-3-3---3-3---3-3-3-3-3-3-3-|-3-------3-3-3-2---2-2-2-2-2-2-2-|
E|-1---1-1-1---1-1---1-1-1-1-1-1-1-|---------------3---3-3-3-3-3-3-3-|

e|-0---0-0-0---0-0---0-0-0-0-0-0-0-|-3---3-3-3---3-3---3-3-3-3-3-3-3-|
B|-1---1-1-1---1-1---1-1-1-1-1-1-1-|-1---1-1-1---1-1---1-1-1-1-1-1-1-|
G|-2---2-2-2---2-2---2-2-2-2-2-2-2-|-0---0-0-0---0-0---0-0-0-0-0-0-0-|
D|-2---2-2-2---2-2---2-2-2-2-2-2-2-|-2---2-2-2---2-2---2-2-2-2-2-2-2-|
A|-0---0-0-0---0-0---0-0-0-0-0-0-0-|-3---3-3-3---3-3---3-3-3-3-3-3-3-|
E|-0---0-0-0---0-0---0-0-0-0-0-0-0-|---------------------------------|

e|-1---1-1-1---1-1---1-1-1-1-1-1-1-|-0-------0-0-0-0---0-0-0-0-0-0-0-|
B|-1---1-1-1---1-1---1-1-1-1-1-1-1-|-1-------1-1-1-0---0-0-0-0-0-0-0-|
G|-2---2-2-2---2-2---2-2-2-2-2-2-2-|-0-------0-0-0-0---0-0-0-0-0-0-0-|
D|-3---3-3-3---3-3---3-3-3-3-3-3-3-|-2-------2-2-2-0---0-0-0-0-0-0-0-|
A|-3---3-3-3---3-3---3-3-3-3-3-3-3-|-3-------3-3-3-2---2-2-2-2-2-2-2-|
E|-1---1-1-1---1-1---1-1-1-1-1-1-1-|---------------3---3-3-3-3-3-3-3-|

   But...           I cannot turn around             the angels hear me now,
e|-0---0-0-0---0-0---0-0-0-0-0-0-0-|-3---3-3-3---3-3---3-3-3-3-3-3-3-|
B|-1---1-1-1---1-1---1-1-1-1-1-1-1-|-1---1-1-1---1-1---1-1-1-1-1-1-1-|
G|-2---2-2-2---2-2---2-2-2-2-2-2-2-|-0---0-0-0---0-0---0-0-0-0-0-0-0-|
D|-2---2-2-2---2-2---2-2-2-2-2-2-2-|-2---2-2-2---2-2---2-2-2-2-2-2-2-|
A|-0---0-0-0---0-0---0-0-0-0-0-0-0-|-3---3-3-3---3-3---3-3-3-3-3-3-3-|
E|-0---0-0-0---0-0---0-0-0-0-0-0-0-|---------------------------------|

                 go where i'm bound. 
e|-1---1-1-1---1-1---1-1-1-1-1-1-1-|-0-------0-0-0-0---0-0-0-0-0-0-0-|
B|-1---1-1-1---1-1---1-1-1-1-1-1-1-|-1-------1-1-1-0---0-0-0-0-0-0-0-|
G|-2---2-2-2---2-2---2-2-2-2-2-2-2-|-0-------0-0-0-0---0-0-0-0-0-0-0-|
D|-3---3-3-3---3-3---3-3-3-3-3-3-3-|-2-------2-2-2-0---0-0-0-0-0-0-0-|
A|-3---3-3-3---3-3---3-3-3-3-3-3-3-|-3-------3-3-3-2---2-2-2-2-2-2-2-|
E|-1---1-1-1---1-1---1-1-1-1-1-1-1-|---------------3---3-3-3-3-3-3-3-|

   You                smile like you know                 the new
e|-0---0-0-0---0-0---0-0-0-0-0-0-0-|-3---3-3-3---3-3---3-3-3-3-3-3-3-|
B|-1---1-1-1---1-1---1-1-1-1-1-1-1-|-1---1-1-1---1-1---1-1-1-1-1-1-1-|
G|-2---2-2-2---2-2---2-2-2-2-2-2-2-|-0---0-0-0---0-0---0-0-0-0-0-0-0-|
D|-2---2-2-2---2-2---2-2-2-2-2-2-2-|-2---2-2-2---2-2---2-2-2-2-2-2-2-|
A|-0---0-0-0---0-0---0-0-0-0-0-0-0-|-3---3-3-3---3-3---3-3-3-3-3-3-3-|
E|-0---0-0-0---0-0---0-0-0-0-0-0-0-|---------------------------------|

   world                 has been found
e|-1---1-1-1---1-1---1-1-1-1-1-1-1-|-0-------0-0-0-0---0-0-0-0-0-0-0-|
B|-1---1-1-1---1-1---1-1-1-1-1-1-1-|-1-------1-1-1-0---0-0-0-0-0-0-0-|
G|-2---2-2-2---2-2---2-2-2-2-2-2-2-|-0-------0-0-0-0---0-0-0-0-0-0-0-|
D|-3---3-3-3---3-3---3-3-3-3-3-3-3-|-2-------2-2-2-0---0-0-0-0-0-0-0-|
A|-3---3-3-3---3-3---3-3-3-3-3-3-3-|-3-------3-3-3-2---2-2-2-2-2-2-2-|
E|-1---1-1-1---1-1---1-1-1-1-1-1-1-|---------------3---3-3-3-3-3-3-3-|


[Oooo] (melody is not the same as the first Oooos but chords are)

[Chorus x6]

End:
e|-1---1---1---1-1---1-1---1-1-1-1-|-1---1---1---1-1---1-1---1-1-1-1-|
B|-1---1---1---1-1---1-1---1-1-1-1-|-1---1---1---1-1---1-1---1-1-1-1-|
G|-2---2---2---2-2---2-2---2-2-2-2-|-2---2---2---2-2---2-2---2-2-2-2-|
D|-3---3---3---3-3---3-3---3-3-3-3-|-3---3---3---3-3---3-3---3-3-3-3-|
A|-3---3---3---3-3---3-3---3-3-3-3-|-3---3---3---3-3---3-3---3-3-3-3-|
E|-1---1---1---1-1---1-1---1-1-1-1-|-1---1---1---1-1---1-1---1-1-1-1-|

e|-0---0---0---0-0---0-0---0-0-0-0-|-0-------------------------------|
B|-1---1---1---1-1---1-1---1-1-1-1-|-1-------------------------------|
G|-2---2---2---2-2---2-2---2-2-2-2-|-2-------------------------------|
D|-2---2---2---2-2---2-2---2-2-2-2-|-2-------------------------------|
A|-0---0---0---0-0---0-0---0-0-0-0-|-0-------------------------------|
E|-0---0---0---0-0---0-0---0-0-0-0-|-0-------------------------------|

            
            
Suggest correction
Creating personal tab
Creating personal tab
You can edit any tab online and save it as your Personal.

You can edit, replace or remove any tab part or add personal notes – all changes will be seen only by you.

Personal tabs can be accessed anytime from any device, even offline.
Learn more »
Give kudos to tab author, rate the tab!
1 2 3 4 5
comments
print report bad tab
guest
You may want to rate the tab now too:
select rating
Wanna post a correction for this tab? Suggest correction