Oops, an error
Loading. Please wait.

Chased Through The Woods tab

version 4
version 4

Whole song

Interactive

6,008 views 1 this week
3 commentsread comments
1 2 3 4 5
x 3
add to favorites
×
Save as Personal and add changes to this tab that will be seen only by you. Learn more ›
×
You can save this tab as Personal to edit and correct it or add notes. All changes will be seen only by you. Learn more »
launch autoscroll
font size
0
reset
how to read this tab
guitar tuner
edit
Autoscroll
slow
fast
+/-
esc
set tempo
stop
Artist: Waking the Cadaver
Song: Chased Through the Woods by a Rapist
Tuning: C G C F A D

. = palm mute
* = pinch harmonic

D|---------------------------------------------------------------------|
A|---------------------------------------------------------------------|
F|---------------------------------------------------------------------|
C|--0-0-0---------000-0-0-0-----------000-0-0-0-----------000-0-0-0----|
G|--0-0-0---------000-0-0-0-----------000-0-0-0-----------000-0-0-0----|
C|--0-0-0---------000-0-0-0-----------000-0-0-0-----------000-0-0-0----|
    . . .         ... . . .           ... . . .           ... . . .

D|-------------------------------------------------------------------|
A|-------------------------------------------------------------------|
F|-------------------------------------------------------------------|
C|-000---------------------------------------------------------------|
G|-000---------------------------------------------------------------|
C|-000---------------------------------------------------------------|
   ...

D|-------------------------------------------------------------------|
A|-------------------------------------------------------------------|
F|-------------------------------------------------------------------|
C|-------------------------------------------------------------------|
G|-----4433333333333333333333-------443333333333333333---------------|
C|-0011-----------------------0011---------------------4433----------|

D|-------------------------------------------------------------------|
A|-------------------------------------------------------------------|
F|-------------------------------------------------------------------|
C|-------------------------------------------------------------------|
G|--------4433333333333333333333--------443333333333333333-----------|
C|-0011---------------------------0011--------------------4433-------|

D|-----------------------------------------------------------|
A|-----------------------------------------------------------|
F|-----------------------------------------------------------|
C|-0-0001-0--0001--------0-0001-0--0001-------0-0001-0--0001-|
G|-0-0001-0--0001--------0-0001-0--0001-------0-0001-0--0001-|
C|-0-0001-0--0001--------0-0001-0--0001-------0-0001-0--0001-|
   . .... .  ....        . .... .  ....       . .... .  ....

D|------------------------------------------------------------|
A|------------------------------------------------------------|
F|------------------------------------------------------------|
C|-0-0001-0--0001---------------------------------------------|
G|-0-0001-0--0001---------------------------------------------|
C|-0-0001-0--0001---------------------------------------------|
   . .... .  ....

D|---------------------------------------------------------------------------|
A|---------------------------------------------------------------------------|
F|---------------------------------------------------------------------------|
C|---------------------------------------------------------------------------|
G|-0---0000-----000000000--0000----000000000--0000----000000000--0000--------|
C|-0---0000-----000000000--0000----000000000--0000----000000000--0000--------|
   .   ....     .........  ....    .........  ....    .........  ....

D|---------------------------------------------------------------------------|
A|---------------------------------------------------------------------------|
F|---------------------------------------------------------------------------|
C|---------------------------------------------------------------------------|
G|-----2211-----2211-----2211------2211-----2211-----2211-----2211-----2211--|
C|1122------1122-----1122-----1122------1122-----1122----1122-----1122-------|

D|---------------------------------------------------------------------------|
A|---------------------------------------------------------------------------|
F|---------------------------------------------------------------------------|
C|---------------------------------------------------------------------------|
G|-0--1--3--3*-0-4-3-2-0-4-3-2-----0--1--3--3*-0-4-3-2-0-4-3-2---------------|
C|-0--1--3-----0-4-3-2-0-4-3-2-----0--1--3-----0-4-3-2-0-4-3-2---------------|

D|---------------------------------------------------------------------------|
A|---------------------------------------------------------------------------|
F|---------------------------------------------------------------------------|
C|---------------------------------------------------------------------------|
G|-0--1--3--3*-0-4-3-2-0-4-3-2-----0--1--3--3*-0-4-3-2-0-4-3-2---------------|
C|-0--1--3-----0-4-3-2-0-4-3-2-----0--1--3-----0-4-3-2-0-4-3-2---------------|

Slow down a lot here

D|---------------------------------------------------------------------------|
A|---------------------------------------------------------------------------|
F|---------------------------------------------------------------------------|
C|---------------------------------------------------------------------------|
G|-0--1--3--3*-0-4-3-2-0-4-3-2-----0--1--3--3*-0-4-3-2-0-4-3-2---------------|
C|-0--1--3-----0-4-3-2-0-4-3-2-----0--1--3-----0-4-3-2-0-4-3-2---------------|

D|----------------------------------------------------------------------------|
A|----------------------------------------------------------------------------|
F|----------------------------------------------------------------------------|
C|----------------------------------------------------------------------------|
G|-0--1--3--3*-0-4-3-2-0-4-3-2-----0--1--3--3*-0-4-3-2-0-4-3-2----------------|
C|-0--1--3-----0-4-3-2-0-4-3-2-----0--1--3-----0-4-3-2-0-4-3-2---3*-----------|

            
            
Suggest correction
Creating personal tab
Creating personal tab
You can edit any tab online and save it as your Personal.

You can edit, replace or remove any tab part or add personal notes – all changes will be seen only by you.

Personal tabs can be accessed anytime from any device, even offline.
Learn more »
Give kudos to tab author, rate the tab!
1 2 3 4 5
comments
print report bad tab
3 comments total.
+1 reply
escalade 346 May 21, 2008 11:39 AM

Good job! There's just one thing that is wrong. The ending:

|----------------------------|
|----------------------------|
|----------------------------|
|----------------------------| for the 1st bar, repeated the same
|-0--1--3--3*-1-3-1-3-1-3----|
|-0--1--3-----1-3-1-3-1-3-3*-|

|-----------------------------------|
|-----------------------------------|
|-----------------------------------|
|-----------------------------------|for the 2nd bar,repeated the same
|-0---1---3---3*-1--3--1----1--3----|
|-0---1---3------1--3--1-1*-1--3-3*-|

Change that part and the tab is darn near 100% right!
keep it \m/

0 reply
MasmaI 30 Apr 09, 2009 06:13 PM

Good tab, but this song is definitely novice. It's the simplest song I've ever learned.

0 reply
KillTheSunset 10 Dec 01, 2010 06:48 AM

it might be easy for you, but not alot of novices can squeal, or palm mute, or trem pick like that. nice tab though, i didnt really see anything wrong yet. it all looks about right.

guest
Wanna post a correction for this tab? Suggest correction