Oops, an error
Loading. Please wait.

Aquaman tab

version 1
version 1

Whole song

937 views 6 this week
no commentswrite comment
1 2 3 4 5
x 4
add to favorites
×
Save as Personal and add changes to this tab that will be seen only by you. Learn more ›
×
You can save this tab as Personal to edit and correct it or add notes. All changes will be seen only by you. Learn more »
launch autoscroll
font size
0
reset
how to read this tab
guitar tuner
edit
Autoscroll
slow
fast
+/-
esc
set tempo
stop
Author
 This tab is based on this live version: https://www.youtube.com/watch?v=r_iN0t-k8Ds
 The only thing that is not in this tab is the solo of this live version. If you want me to put it
 please comment on this tab.



Intro:

e|--------------------------------------------|
B|9-9-9-9-6-6-6-------------------------------|
G|-------------8-6/3-6-------------------6-6h8|
D|----------------------6-6-6-6-6-6-6-6h8-8---|
A|--------------------------------------------|
E|--------------------------------------------|

e|-------6------------------------------------|
B|9-9-9-9-6-6-6/4-4---------------------------|
G|---------------6-6---8--6-------------------|
D|--------------------8--8---8p6--6-----------|
A|--------------------------------------------|
E|--------------------------------------------|

Verse:

... mirror of the surface

e|--------------------|
B|---------9p6-6------|
G|6-x24-------8-8p6---|
D|-----------------8p6|
A|--------------------|
E|--------------------|

...we can take it

e|--------------------|
B|---------9p6-6------|
G|6-x24-------8-8p6---|
D|-----------------8p6|
A|--------------------|
E|--------------------|

See the thing you've been chasing honey
You'll never find it wearin' a life vest

e|--------------------|
B|---------9p6-6------|
G|6-x56-------8-8p6---|
D|-----------------8p6|
A|--------------------|
E|--------------------|

You gotta risk your neck, know in your heart it will be worth it

e|--------------------|
B|---------9p6-6------|
G|6-x56-------8-8p6---|
D|-----------------8p6|
A|--------------------|
E|--------------------|

Chorus:

----------------------------------------------|
                                              |
e|----6---------6-------6---------9--9-9-9|   |
B|--9---6-----9---6---9---9-------9--9-9-9|   |
G|6-------6h8-------6-------6h8---6--6-6-6|   |
D|----------------------------------------|   |
A|----------------------------------------|   |
E|----------------------------------------|   |
                                              x2
e|----6---------6-------6-----6----|          |
B|--9---6-----9---6---9-----9---9--|          |
G|6-------6h8-------6-----8-------8|          |
D|---------------------------------|          |
A|---------------------------------|          |
E|---------------------------------|          |
                                              |
----------------------------------------------|

Intro:

e|--------------------------------------------|
B|9-9-9-9-6-6-6-------------------------------|
G|-------------8-6/3-6-------------------6-6h8|
D|----------------------6-6-6-6-6-6-6-6h8-8---|
A|--------------------------------------------|
E|--------------------------------------------|

e|-------6------------------------------------|
B|9-9-9-9-6-6-6/4-4---------------------------|
G|---------------6-6---8--6-------------------|
D|--------------------8--8---8p6--6-----------|
A|--------------------------------------------|
E|--------------------------------------------|

Verse 2:

...get my feet wet

e|--------------------|
B|---------9p6-6------|
G|6-x24-------8-8p6---|
D|-----------------8p6|
A|--------------------|
E|--------------------|

...the deep end

e|--------------------|
B|---------9p6-6------|
G|6-x24-------8-8p6---|
D|-----------------8p6|
A|--------------------|
E|--------------------|

Well I learned my lesson, honey
Just when you think you're all adult swim

e|--------------------|
B|---------9p6-6------|
G|6-x56-------8-8p6---|
D|-----------------8p6|
A|--------------------|
E|--------------------|

Is precisely when somebody shows you to the ocean

e|--------------------|
B|---------9p6-6------|
G|6-x56-------8-8p6---|
D|-----------------8p6|
A|--------------------|
E|--------------------|


Chorus:

----------------------------------------------|
                                              |
e|----6---------6-------6---------9--9-9-9|   |
B|--9---6-----9---6---9---9-------9--9-9-9|   |
G|6-------6h8-------6-------6h8---6--6-6-6|   |
D|----------------------------------------|   |
A|----------------------------------------|   |
E|----------------------------------------|   |
                                              x2
e|----6---------6-------6-----6----|          |
B|--9---6-----9---6---9-----9---9--|          |
G|6-------6h8-------6-----8-------8|          |
D|---------------------------------|          |
A|---------------------------------|          |
E|---------------------------------|          |
                                              |
----------------------------------------------|

Bridge:

With Delay

e|9-9|     e|---|
B|9-9|     B|---|
G|---| x9* G|8-7|
D|---|     D|8-8|
A|---|     A|---|
E|---|     E|---|

*Played at the half of every piano chord

Chorus 2:

------------------------------------------------------|
                                                      |
e|-----8---------8---------8----------11--11-11-11|   |
B|--11---8-----11---8---11---11-------11--11-11-11|   |
G|8--------8h10-------8---------8h10---8---8--8--8|   |
D|------------------------------------------------|   |
A|------------------------------------------------|   |
E|------------------------------------------------|   |
                                                      x2
e|-----8---------8---------8------8-----|             |
B|--11---8-----11---8---11-----11---11--|             |
G|8--------8h10-------8-----10--------10|             |
D|--------------------------------------|             |
A|--------------------------------------|             |
E|--------------------------------------|             |
                                                      |
------------------------------------------------------|

Outro

-----------------------------|
                             |
e|------------------------|  |
B|---------11p8--8--------|  |
G|8-x24--------10-10p8----|  |
D|--------------------10p8|  |
A|------------------------|  |
E|------------------------|  |
                             x2
e|-------------|             |
B|-------------|             |
G|8-x24---10-x6|             |
D|-------------|             |
A|-------------|             |
E|-------------|             |
                             |
-----------------------------|

---------------------------------------------------------|
                                                         |
e|----------------------------------------------------|  |
B|11-11-11-11-8-8-8-----------------------------------|  |
G|-----------------10-8/5-8--------------------8--8h10|  |
D|--------------------------8-8-8-8-8-8-8-8h10--10----|  |
A|----------------------------------------------------|  |
E|----------------------------------------------------|  |
                                                         x2
e|-----------8----------------------------|              |
B|11-11-11-11-8-8-8/6-6-------------------|              |
G|-------------------8-8----10--8---------|              |
D|------------------------10--10---10p8--8|              |
A|----------------------------------------|              |
E|----------------------------------------|              |
                                                         |
---------------------------------------------------------|


            
            
Suggest correction
Creating personal tab
Creating personal tab
You can edit any tab online and save it as your Personal.

You can edit, replace or remove any tab part or add personal notes – all changes will be seen only by you.

Personal tabs can be accessed anytime from any device, even offline.
Learn more »
comments
print report bad tab
guest
You may want to rate the tab now too:
select rating
Wanna post a correction for this tab? Suggest correction