Oops, an error
Loading. Please wait.
We have an official Shut Up And Dance tab made by UG professional guitarists. Check out the tab »
×

Shut Up And Dance tab

version 4
version 4

Whole song

  • This version is more organized and accurate than the other versions.
  • I have a full solo that I belive to be correct, an... Show more

Interactive

Video

2,465 views 6 this week
1 commentread comment
1 2 3 4 5
1 last vote to show rating
add to favorites
×
Save as Personal and add changes to this tab that will be seen only by you. Learn more ›
×
You can save this tab as Personal to edit and correct it or add notes. All changes will be seen only by you. Learn more »
launch autoscroll
font size
0
reset
how to read this tab
guitar tuner
backing track
0:00
0:00
edit
Autoscroll
slow
fast
+/-
esc
set tempo
stop
Eb Tuning
Intro
e------10-----10----------10-----10------|
b----10-----10-----10---10-----10----10--|
g--11-----12-----12---11------9-----9----| 5x
d----------------------------------------|
a----------------------------------------|
e----------------------------------------|

Another guitar drones a D note with a dotted 1/8 delay set at 128bpm. Also another in 
there scratch/muting the
Strings at the same tempo and delay settings.

Verse
e----------------------------------------|
b----------------------------------------|
g-7-7-7-7-7-7-77-7-7-7-7-7-7-7-----------| repeat
d----------------------------------------| numerous
a----------------------------------------| times
e----------------------------------------|

then
e-------------------|
b-------------------|
g--7-7-7-7----------|
d--7-7-7-7-7-7-5----|
a--5-5-4-4-7-7-5----|
e----------5-5-3----|

Pre-Chorus
e------------------------------------------------------|
b------------------------------------------------------|
g------------7-7-7-7------------------2---x-x-x-x-x-x--| Quick scratch muting
d------5-5---7-7-7-7-7-7-5-------5-5--2---x-x-x-x-x-x--| Right before the Chorus
a--5-5-5-5---5-5-4-4-7-7-5---5-5-5-5--0---x-x-x-x-x-x--|
e--2-2-3-3-----------5-5-3---2-2-3-3-------------------|

Chorus
e------------------------------------------------------------------|
b------------------------------------------------------------------|
g-7-7-7-----------4-4-4-2-2-2-2-2--7-7-7-------------4--4--2--2----| 2 Times
d-7-7-7-5-5-5-5-5-4-4-4-2-2-2-2-2--7-7-7-5-5-5-5-5---4--4--2--2----|
a-5-5-5-5-5-5-5-5-2-2-2-0-0-0-0-0--5-5-5-5-5-5-5-5---2--2--0--0----|
e-------3-3-3-3-3------------------------3-3-3-3-3-----------------------|

Verse 2
e----------------------------------------|
b----------------------------------------|
g-7-7-7-7-7-7-77-7-9-9-9-9-9-9-----------| Same as verse 1 but reached up to the 9th fret
d----------------------------------------| and bends its a full step on the last bunch of notes
a----------------------------------------| Then proceeds the same as usual for remaining verse
e----------------------------------------|

Pre-Chrous
Chorus

Big Chord before Solo
e---------|
b---------|
g---------| Let it Ring out
d--5------|
a--5------|
e--3------|

Solo Chords
e--------------------------------------|
b--------------------------------------|
g--------------------------------------| 3 Times
d-9-9-9-9/12-12-12-12-5-5-5-7-7-7-7-7--|
a-9-9-9-9/12-12-12-12-5-5-5-7-7-7-7-7--|
e-7-7-7-7/10-10-10-10-3-3-3-5-5-5-5-5--|

Then
e--------------------------------------|
b--------------------------------------|
g--------------------------------------|
d-9--9--12--12--------7-7-7-7-7-7-7----|
a-9--9--12--12--5--5--7-7-7-7-7-7-7----|
e-7--7--10--10--3--3--5-5-5-5-5-5-5----|

Solo
e-----------------------------------------------------------|
b-------------10/12\10------------------------10/12\10/15---|
g--7-7/14\11-----------11b12r11-9-7-7/14\11-----------------|
d-----------------------------------------------------------|
a-----------------------------------------------------------|
e-----------------------------------------------------------|
                                               ~~~~~~~~
e-----------------------14---19---19---21-21b22---------12--12---14--14--15--15--17--17--17--17--17--17--17--|
b-------------12---15-12---17---19---19-----------------15b-15b--17b-17b-18b-18b-20b-20b-20b-20b-20b-20b-20b-|
g---11---14-11---14------------------------------------------------------------------------------------------|
d--9---12----------------------------------------------------------------------------------------------------|
a------------------------------------------------------------------------------------------------------------|
e------------------------------------------------------------------------------------------------------------|

Solo Note: Best to use neck pickup for that synth-like sound. Better yet, a synth 
effect! The last section,
           where the notes climb, is probably not a 100% accurate but sounds about 98% 
right. A Whammy pedal of
           some sort with it set to an octave up might be a good way to play that 
passage. Oh and a nice vibrato
           on the last note of the climb.

The rest of the song is just repeats of previous parts with slight vations and number of 
times played. HAVE FUN!

            
            
Suggest correction
Creating personal tab
Creating personal tab
You can edit any tab online and save it as your Personal.

You can edit, replace or remove any tab part or add personal notes – all changes will be seen only by you.

Personal tabs can be accessed anytime from any device, even offline.
Learn more »
Give kudos to tab author, rate the tab!
1 2 3 4 5
comments
print report bad tab
1 comment total.
0 reply
ajradish2121 10 Mar 09, 2017 01:02 PM

good solo tab

guest
You may want to rate the tab now too:
select rating
Wanna post a correction for this tab? Suggest correction