Oops, an error
Loading. Please wait.

Capital T bass

211 views 3 this week
no commentswrite comment
1 2 3 4 5
2 more votes to show rating
add to favorites
×
Save as Personal and add changes to this tab that will be seen only by you. Learn more ›
×
You can save this tab as Personal to edit and correct it or add notes. All changes will be seen only by you. Learn more »
launch autoscroll
font size
0
reset
guitar tuner
edit
Autoscroll
slow
fast
+/-
esc
set tempo
stop
Walking Papers - Capital T

Album : 2012 - Walking Papers
Instrument : Bass
Bassist : Duff McKagan
Tunning : Drop D (DADG)
Tempo : 88 bpm

Tabbed by S-Kape (skapetabs@gmail.com)



Intro (0:00)

G|----------------|----------------|----------------|----------------|
D|----------------|----------------|----------------|----------------|
A|----------------|----------------|----------------|----------------|
D|----------------|----------------|----------------|----------------|
  1 + 2 + 3 + 4 +  1 + 2 + 3 + 4 +  1 + 2 + 3 + 4 +  1 + 2 + 3 + 4 + 

G|--------12b-10--10----------------|--------------------------------|
D|--------------12----10--10h12-x-x-|--------------------------------|
A|----------------------------------|--------------------------------|
D|0---------------------------------|3-----3-x-x-2-------2---2-------|
  1 e + a 2 e + a 3 e + a 4  e  + a  1 e + a 2 e + a 3 e + a 4 e + a 

G|--------12b-10--10----------------|---------------------------------------|
D|--------------12----10--10h12-x-x-|12p10----10h12-------------------------|
A|----------------------------------|------12-------11-10-8-----8---x-------|
D|0---------------------------------|---------------------------------10----|
  1 e + a 2 e + a 3 e + a 4  e  + a  1  e  +  a  2  e  +  a 3 e + a 4 e + a 

G|--------12b-10--10----------------|--------------------------------|
D|--------------12----10--10h12-x-x-|--------------------------------|
A|----------------------------------|--------------------------------|
D|0---------------------------------|3-----3-x-x-2-------2---2-------|
  1 e + a 2 e + a 3 e + a 4  e  + a  1 e + a 2 e + a 3 e + a 4 e + a 

G|--------------------------------|----------------|----------------|
D|--------------------------------|----------------|----------------|
A|--------------------------------|----------------|----------------|
D|5-----5-x-x-3-------3---3---5---|7-7-7-7-7-7-7-7-|7-7-7-7-7-7-7-7-|
  1 e + a 2 e + a 3 e + a 4 e + a  1 + 2 + 3 + 4 +  1 + 2 + 3 + 4 +    



Solo Intro (0:36)

G|--------------------------------|--------------------------------|
D|----------------------------3---|--------------------------------|
A|--------5---x-x-3---5---x-------|--------5-----------------------|
D|0-------------------------------|------------x-x-3---4---5-------|
  1 e + a 2 e + a 3 e + a 4 e + a  1 e + a 2 e + a 3 e + a 4 e + a  

G|--------------------------------|--------------------------------|
D|----------------------------3---|----------------5b----3---------|
A|--------5---x-x-3---5---x-------|--------5---------------5-0-3h5-|
D|0-------------------------------|--------------------------------|
  1 e + a 2 e + a 3 e + a 4 e + a  1 e + a 2 e + a 3 e + a 4 e + a  

G|--------------------------------|--------------------------------|
D|----------------------------3---|--------------------------------|
A|--------5---x-x-3---5---x-------|--------5-----------------------|
D|0-------------------------------|------------x-x-3---4---5-------|
  1 e + a 2 e + a 3 e + a 4 e + a  1 e + a 2 e + a 3 e + a 4 e + a  

G|--------------------------------|--------------------------------|
D|----------------------------3---|----------------3p2p0---2p0-----|
A|--------5---x-x-3---5---x-------|--------5-------------3-----3p2-|
D|0-------------------------------|--------------------------------|
  1 e + a 2 e + a 3 e + a 4 e + a  1 e + a 2 e + a 3 e + a 4 e + a  



Verse (0:57)

G|--------------------------------|--------------------------------|
D|----------------------------3---|--------------------------------|
A|--------5---x-x-3---5---x-------|--------5-----------------------|
D|0-------------------------------|------------x-x-3---4---5-------|
  1 e + a 2 e + a 3 e + a 4 e + a  1 e + a 2 e + a 3 e + a 4 e + a  

G|--------------------------------|--------------------------------|
D|----------------------------3---|----------------5b----3---------|
A|--------5---x-x-3---5---x-------|--------5---------------5-0-3h5-|
D|0-------------------------------|--------------------------------|
  1 e + a 2 e + a 3 e + a 4 e + a  1 e + a 2 e + a 3 e + a 4 e + a  

G|--------------------------------|--------------------------------|
D|----------------------------3---|--------------------------------|
A|--------5---x-x-3---5---x-------|--------5-----------------------|
D|0-------------------------------|------------x-x-3---4---5-------|
  1 e + a 2 e + a 3 e + a 4 e + a  1 e + a 2 e + a 3 e + a 4 e + a  

G|--------------------------------|--------------------------------|
D|----------------------------3---|----------------3p2p0---2p0-----|
A|--------5---x-x-3---5---x-------|--------5-------------3-----3p2-|
D|0-------------------------------|--------------------------------|
  1 e + a 2 e + a 3 e + a 4 e + a  1 e + a 2 e + a 3 e + a 4 e + a  

G|--------------------------------|--------------------------------|
D|----------------------------3---|--------------------------------|
A|--------5---x-x-3---5---x-------|--------5-----------------------|
D|0-------------------------------|------------x-x-3---4---5-------|
  1 e + a 2 e + a 3 e + a 4 e + a  1 e + a 2 e + a 3 e + a 4 e + a  

G|--------------------------------|--------------------------------|
D|----------------------------3---|----------------5b----3---------|
A|--------5---x-x-3---5---x-------|--------5---------------5-0-3h5-|
D|0-------------------------------|--------------------------------|
  1 e + a 2 e + a 3 e + a 4 e + a  1 e + a 2 e + a 3 e + a 4 e + a  

G|--------------------------------|--------------------------------|
D|----------------------------3---|--------------------------------|
A|--------5---x-x-3---5---x-------|--------5-----------------------|
D|0-------------------------------|------------x-x-3---4---5---0---|
  1 e + a 2 e + a 3 e + a 4 e + a  1 e + a 2 e + a 3 e + a 4 e + a  

G|--------------------------------|--------------------------------|
D|--------------------------------|--------------------------------|
A|--------------------------------|--------------------------------|
D|7---7---7---7---7---7---7---7---|7---7---7---7---7---7---7---7---|
  1 e + a 2 e + a 3 e + a 4 e + a  1 e + a 2 e + a 3 e + a 4 e + a  



Chorus (1:41)

G|--------------------------------|--------------------------------|
D|--------------------------------|--------------------------------|
A|------------3-----------2p0-----|--------------------------------| x3
D|0-----0-3p0-----------------3p0-|3h5---5-3h5---5-3h5-5-5-5p3-----|
  1 e + a 2 e + a 3 e + a 4 e + a  1 e + a 2 e + a 3 e + a 4 e + a  

G|--------------------------------|--------------------------------|
D|--------------------------------|--------------------------------|
A|------------3-----------2p0-----|--------------------------------|
D|0-----0-3p0-----------------3p0-|x-2---x-3-----x-4-----x-5-------|
  1 e + a 2 e + a 3 e + a 4 e + a  1 e + a 2 e + a 3 e + a 4 e + a  



Verse (2:03)



Chorus (2:46)



Intro (3:08)



Chorus (3:32)

G|--------------------------------|--------------------------------|
D|--------------------------------|--------------------------------|
A|------------3-----------2p0-----|--------------------------------| x3
D|0-----0-3p0-----------------3p0-|3h5---5-3h5---5-3h5-5-5-5p3-----|
  1 e + a 2 e + a 3 e + a 4 e + a  1 e + a 2 e + a 3 e + a 4 e + a  

G|--------------------------------|--------------------------------|
D|--------------------------------|--------------------------------|
A|------------3-----------2p0-----|--------------------------------|
D|0-----0-3p0-----------------3p0-|x-2---x-3-----x-4-----x-5-------|
  1 e + a 2 e + a 3 e + a 4 e + a  1 e + a 2 e + a 3 e + a 4 e + a  

G|--------------------------------|--------------------------------|
D|--------------------------------|--------------------------------|
A|------------3-----------2p0-----|--------------------------------| x3
D|0-----0-3p0-----------------3p0-|3h5---5-3h5---5-3h5-5-5-5p3-----|
  1 e + a 2 e + a 3 e + a 4 e + a  1 e + a 2 e + a 3 e + a 4 e + a  

G|--------------------------------|--------------------------------|
D|--------------------------------|--------------------------------|
A|--------------------------------|--------------------------------|
D|7---7---7---7---7---7---7---7---|7---7---7---7---7---7---7---7---|
  1 e + a 2 e + a 3 e + a 4 e + a  1 e + a 2 e + a 3 e + a 4 e + a  



Outro Solo (4:14)

G|--------------------------------|--------------------------------|
D|--------------------------------|--------------------------------|
A|------------3-----------2p0-----|--------------------------------| 
D|0-----0-3p0-----------------3p0-|3h5---5-3h5---5-3h5-5-5-5p3-----|
  1 e + a 2 e + a 3 e + a 4 e + a  1 e + a 2 e + a 3 e + a 4 e + a  

G|--------------------------------|--------------------------------|
D|--------------------------------|--------------------------------|
A|------------3-----------2p0-----|--------------------------------|
D|0-----0-3p0-----------------3p0-|x-2---x-3---x-4---x-5---5---5---|
  1 e + a 2 e + a 3 e + a 4 e + a  1 e + a 2 e + a 3 e + a 4 e + a  

G|--------------------------------|--------------------------------|
D|--------------------------------|--------------------------------|
A|------------3-----------2p0-----|--------------------------------| 
D|0-----0-3/5-----------------3p0-|3h5---5-3h5---5-3h5-5-5-5p3-----|
  1 e + a 2 e + a 3 e + a 4 e + a  1 e + a 2 e + a 3 e + a 4 e + a  

G|--------------------------------|--------------------------------|
D|--------------------------------|--------------------------------|
A|------------3-----------2p0-----|--------------------------------|
D|0-----0-3p0-----------------3p0-|x-2---x-3---x-4---x-5-----------|
  1 e + a 2 e + a 3 e + a 4 e + a  1 e + a 2 e + a 3 e + a 4 e + a  

G|--------------------------------|--------------------------------|
D|--------------------------------|--------------------------------|
A|--------------------------------|--------------------------------|
D|x-2---x-3---x-4---x-5-----------|x-2---x-3---x-4---x-5-----------|
  1 e + a 2 e + a 3 e + a 4 e + a  1 e + a 2 e + a 3 e + a 4 e + a  

G|--------------------------------|--------------------------------|
D|--------------------------------|--------------------------------|
A|--------------------------------|--------------------------------|
D|0-------------------------------|--------------------------------|
  1 e + a 2 e + a 3 e + a 4 e + a  1 e + a 2 e + a 3 e + a 4 e + a  



If you have any questions, comments or suggestions,
contact me at skapetabs@gmail.com. I'd be happy to answer.

Hope you enjoyed it.

            
            
Suggest correction
Creating personal tab
Creating personal tab
You can edit any tab online and save it as your Personal.

You can edit, replace or remove any tab part or add personal notes – all changes will be seen only by you.

Personal tabs can be accessed anytime from any device, even offline.
Learn more »
Give kudos to tab author, rate the tab!
1 2 3 4 5
comments
print report bad tab
guest
You may want to rate the tab now too:
select rating
Wanna post a correction for this tab? Suggest correction