Oops, an error
Loading. Please wait.

Far Side Of Crazy tab

373 views 1 this week
no commentswrite comment
1 2 3 4 5
2 more votes to show rating
add to favorites
×
Save as Personal and add changes to this tab that will be seen only by you. Learn more ›
×
You can save this tab as Personal to edit and correct it or add notes. All changes will be seen only by you. Learn more »
launch autoscroll
font size
0
reset
how to read this tab
guitar tuner
edit
Autoscroll
slow
fast
+/-
esc
set tempo
stop
Author
Difficulty
-------------------------------------------------------------------------------
                             Far side of crazy - Wall Of Voodoo
-------------------------------------------------------------------------------
Tabbed by: Davide Bencivinni
E-mail: davidebncv@libero.it

Tuning: standard (EADGBe)

Chords for the song:

   D#5  A#5  F#5  G#5  C#5

e |-----------------------|
B |-----------------------|
G |-8----3--------------6-|
D |-8----3----4----6----6-|
A |-6----1----4----6----4-|
E |-----------2----4------|

Legend:

~ vibrato
() facoltative
h hammer on
p pull off
= hold note
s slide


[intro]


D#5         C#5 D#5

                           ~                            ~                       
e |------------------------------------------------------|
B |------------------------------------------------------|
G |------------------------------------------------------|
D |------------------------------------------------------|
A |---6----6----6-9-8-6-------6---6--6-9-8-6-----8-6-----|
E |-6----6---(6)--------9-6-----6------------(9)-----9-6-|

                               ~                               ~
e |-------------------------------------------------------------|
B |-------------------------------------------------------------|
G |-------------------------------------------------------------|
D |-------------------------------------------------------------|
A |-6---6------6----6-9-8-6------6---6--6-9-8-6-----6h8p6-6-----|
E |---6----(6)---6----------9-6----6------------(9)---------9-6-|


[1st verse]

D#5
I'm Pilate and Jesus
D#5
And I wept when Lennon died

Yet I envied his assailant
      G#5   D#5        C#5   D#5
When I visited the shrine
D#5
I cried for all those Beatle Fans
                      A#5   D#5
So old so quick they grow
D#5
I follow the example to destroy
D#5
What I love most


[chorus]

C#5   F#5
                         A#5          D#5
And I remain on the far side of crazy
N.C.
I remain the mortal enemy of man

C#5   F#5
             A#5                    G#5
No hundred dollar cure will save me
                                   D#5
Can't stay a boy in no man's land


[2nd verse]

D#5
I once hid my lust for stardom
                A#5
Like a filthy magazine
D#5
I stroked the shaft on my guitar
D#5
And watched you on the screen
D#5
I've become now what I wanted
D#5
To be all along
D#5
A psychopathic poet
D#5
The Devil's bastard son


[2nd chorus]

C#5   F#5
                         A#5          D#5
And I remain on the far side of crazy
N.C.
I remain the mortal enemy of man

C#5   F#5
             A#5                    G#5
No hundred dollar cure will save me
                                   D#5
Can't stay a boy in no man's land


                           ~                            ~                       
e |------------------------------------------------------|
B |------------------------------------------------------|
G |------------------------------------------------------|
D |------------------------------------------------------|
A |---6----6----6-9-8-6-------6---6--6-9-8-6-----8-6-----|
E |-6----6---(6)--------9-6-----6------------(9)-----9-6-|

                               ~                               ~
e |-------------------------------------------------------------|
B |-------------------------------------------------------------|
G |-------------------------------------------------------------|
D |-------------------------------------------------------------|
A |-6---6------6----6-9-8-6------6---6--6-9-8-6-----6h8p6-6-----|
E |---6----(6)---6----------9-6----6------------(9)---------9-6-|


[solo]

            ~            ~  ~      ~      ~            ~  ~    ~      ~          ~
e |-----------------------------------------------------------------------------------|
B |-----------------------------------------------------------------------------------|
G |-----------------------------------------------------------------------------------|
D |-------------6-8-6------8--6------6-------------------9--8-9--8-6-8--8h9-8-6-8-(6)-|
A |-6---9-9-(9)-------8-9-------8-9----9-8--9-8-6-------------------------------------|
E |---6-------------------------------------------9-7-6-------------------------------|

                                 ~
e |-------------------------------|
B |-/7-6--------------------------|
G |--------------------8----------|
D |-/9-8-(6)--9-8--8-6-8----------|
A |--------------------6====s(14)-|
E |-------------------------------|


[3rd verse]

for the 3rd verse play this (not 100% sure about it)
e |------------------|
B |-(12-12-12-12-12)-|
G |--12-14-14-14-12--|
D |------------------|
A |------------------|
E |------------------|

N.C.
I shot an actor for an actress
N.C.
But he lived to make a joke
N.C.
Shot two other men who could have been
N.C.
The bodys of my folks
N.C.
I stagger toward the future
N.C.
I stagger day to day
N.C.
Plot revenge inside of darkness
N.C.
I am withering in pain


[3rd chorus]


C#5   F#5
                         A#5          D#5
And I remain on the far side of crazy
N.C.
I remain the mortal enemy of man

C#5   F#5
             A#5                    G#5
No hundred dollar cure will save me
N.C.                        
Can't stay a boy in no man

C#5   F#5
                         A#5          D#5
And I remain on the far side of crazy
N.C.
I remain the mortal enemy of man

C#5   F#5
             A#5                    G#5
No hundred dollar cure will save me
                                   D#5
Can't stay a boy in no man's land


[outro]

D#5

                           ~                            ~                       
e |------------------------------------------------------|
B |------------------------------------------------------|
G |------------------------------------------------------|
D |------------------------------------------------------|
A |---6----6----6-9-8-6-------6---6--6-9-8-6-----8-6-----|
E |-6----6---(6)--------9-6-----6------------(9)-----9-6-|

                               ~                               ~
e |-------------------------------------------------------------|
B |-------------------------------------------------------------|
G |-------------------------------------------------------------|
D |-------------------------------------------------------------|
A |-6---6------6----6-9-8-6------6---6--6-9-8-6-----6h8p6-6-----|
E |---6----(6)---6----------9-6----6------------(9)---------9-6-|

Enjoy it

            
            
Suggest correction
Creating personal tab
Creating personal tab
You can edit any tab online and save it as your Personal.

You can edit, replace or remove any tab part or add personal notes – all changes will be seen only by you.

Personal tabs can be accessed anytime from any device, even offline.
Learn more »
Give kudos to tab author, rate the tab!
1 2 3 4 5
comments
print report bad tab
guest
You may want to rate the tab now too:
select rating
Wanna post a correction for this tab? Suggest correction