Oops, an error
Loading. Please wait.

Sun Tan chords

by Wallows
1,099 views 63 this week
no commentswrite comment
1 2 3 4 5
x 11
add to favorites
×
Save as Personal and add changes to this tab that will be seen only by you. Learn more ›
×
You can save this tab as Personal to edit and correct it or add notes. All changes will be seen only by you. Learn more »
launch autoscroll
font size
0
reset
transpose
0
reset
display chords
guitar tuner
edit
Autoscroll
slow
fast
+/-
esc
set tempo
stop
Strumming
There is no strumming pattern for this song yet. and get +5 IQ
Song: Sun Tan
Sung by: Wallows
Tabbed by: Kurt Lantan
Email: kurtlantan@gmail.com

b = bend
r = release 
~ = vibrato/let slide

[Verse 1]
E     A      B
 Okay, I'm a fucking loser
   F#m            A            B
Who doesn't wanna talk to you
E     A          B
 Okay, I'll take a little time
F#m           A               B
To care about what you do


[Pre-Chorus]
A   B        E
Why does the sun set, baby?
A   B        E
I'm trying to get my sun tan
A B        E
I feel I'm always sinking
F#m
Tell me where you want it
A           B
Down in the city


[Chorus]
E             A         F#m
How can I explain it to you
             A
When I can't talk at all?
E               A           F#m
Fuck, I'm kinda cross-faded now
            A
I'm trying not to fall
E                 A         F#m
Spending all this time by myself
              A
Just shopping at the mall
E              A           F#m
You just wanna talk it all out
        A
But I ignored your call

 
[Guitar 1]

   E            E       A
e|-0------------0-------0------------------|
B|-0------------0-------2------------------|
G|-1------------1-------2------------------|
D|-2------------2-------2------------------| 
A|-2------------2-------0------------------|
E|-0------------0-------x------------------|

[Guitar 2]

   E            E       A
e|---0--------0----0----0h2-----00------|
B|-----0--2-4---0----0------0h2---------|
G|--------------------------------------|
D|--------------------------------------| 
A|--------------------------------------|
E|--------------------------------------|


[Verse 2]
E     A             B
 Okay, times are really changing
F#m          A            B
And I can't afford myself
E     A         B
 Okay, tell me where to go
    F#m            A        B
And darling, I'll  be there...


[Pre-Chorus]
A   B        E
Why does the sun shine, baby?
A   B    E
I'm tryna heal my sunburn
A B        C#m
I feel I'm always aging
F#m
Tell me I was somethin'
A            B      
Tell me it's nothin'


[Chorus]
E             A         F#m
How can I explain it to you
             A
When I can't talk at all?
E               A           F#m
Fuck, I'm kinda cross-faded now
            A
I'm trying not to fall
E                 A         F#m
Spending all this time by myself
              A
Just shopping at the mall
E              A           F#m
You just wanna talk it all out
        A               E
But I ignored your call...


[Instrumental]
E   A     x12

F#m A B

[Trumpet Solo]

e|----7-5-4-5-4-------4-----------------4-----------------------------|
B|--------------7-5-7---7-5------5~~~~7---7-5-----5-------------------|
G|---------------------------4h6--------------4h6---6-4---4-----------|
D|------------------------------------------------------6---6-4-2~~~--| REPEAT 4X
A|--------------------------------------------------------------------|
E|--------------------------------------------------------------------|

e|----2----4-5~---7-|
B|----2----4-5~---7-|
G|----2----4-6~---8-|
D|----4----6-7~---9-|
A|------------------|
E|------------------|


[Chorus]                              
E             A         F#m
How can I explain it to you 

             A
When I can't talk at all?   B|----8br^brb----|
        
E               A           F#m
Fuck, I'm kinda cross-faded now
            A
I'm trying not to fall
E                 A         F#m
Spending all this time by myself
              A
Just shopping at the mall
E              A           F#m
You just wanna talk it all out
        A
But I ignored your call

[Outro]
 
E C#m A

[Trumpet]

e|----7~~~5-4~~--------4~~---|
B|-------------7-5~~~7-------|
G|---------------------------|

E
 Now you're at the range
C#m
 Hittin' balls of shame
A
 Can't you see I'm okay?
E
 When you say it's wrong
C#m
 Don't let me sing along
A
 I can't erase my memory
E
 Don't tell me where to be
C#m
 Or tell me what to see
A                         E
 Don't you know I'm faded...

Then end with:
e|----7~~~~-5-4~~~~~|

Thanks!

            
            
Suggest correction
Creating personal tab
Creating personal tab
You can edit any tab online and save it as your Personal.

You can edit, replace or remove any tab part or add personal notes – all changes will be seen only by you.

Personal tabs can be accessed anytime from any device, even offline.
Learn more »
comments
print report bad tab
guest
You may want to rate the tab now too:
select rating
Wanna post a correction for this tab? Suggest correction