Oops, an error
Loading. Please wait.

Lets Get Breakfast intro tab

version 1
version 1

Intro

Whole song

  • This tab is an exact transcription of the artist's... Show more
304 views 9 this week
no commentswrite comment
1 2 3 4 5
x 3
add to favorites
×
Save as Personal and add changes to this tab that will be seen only by you. Learn more ›
×
You can save this tab as Personal to edit and correct it or add notes. All changes will be seen only by you. Learn more »
launch autoscroll
font size
0
reset
how to read this tab
guitar tuner
edit
Autoscroll
slow
fast
+/-
esc
set tempo
stop
Author
Difficulty
[Intro]
e|----------------|----------------|----------------|----------------|
B|----------------|0--0--0---------|2--2--2---------|0--0--0---------|
G|1--1--1---------|----------------|----------------|----------------|
D|----------------|----------------|----------------|----------------|
A|----------------|----------------|0--0--0---------|----------------|
E|0--0--0---------|4--4--4---------|----------------|0--0--0---------|

e|----------------|----------------|----------------|----------------|
B|----------------|----------------|2--2--2---------|4--4--4---------|
G|1--1--1---------|----------------|----------------|----------------|
D|----------------|4--4--4---------|----------------|----------------|
A|4--4--4---------|1--1--1---------|0--0--0---------|2--2--2---------|
E|----------------|----------------|----------------|----------------|

LYRICS:

[Intro tab]

Long drive, tongue tied, it’s weird being home.
Lets get breakfast, I'll pack you a bowl.

Text threats, old girlfriends, it ba - rely hurts
But ghost eyes on old friends is making it worse.

[Intro tab]

Brave the handshake, drag through the small talk
It takes guts to be so fake, oh well whatever
I'm getting good at losing contact, I can tell by your face

Borrowed my best thoughts, stole all my good luck
Now I'm in a better place, or am I?
Lets just get breakfast, make it all go away.

            
            
Suggest correction
Creating personal tab
Creating personal tab
You can edit any tab online and save it as your Personal.

You can edit, replace or remove any tab part or add personal notes – all changes will be seen only by you.

Personal tabs can be accessed anytime from any device, even offline.
Learn more »
Give kudos to tab author, rate the tab!
1 2 3 4 5
comments
print report bad tab
guest
You may want to rate the tab now too:
select rating
Wanna post a correction for this tab? Suggest correction