Oops, an error
Loading. Please wait.

Morning Rainbow chords

by Wand
148 views 9 this week
no commentswrite comment
1 2 3 4 5
3 more votes to show rating
add to favorites
×
Save as Personal and add changes to this tab that will be seen only by you. Learn more ›
×
You can save this tab as Personal to edit and correct it or add notes. All changes will be seen only by you. Learn more »
launch autoscroll
font size
0
reset
transpose
0
reset
simplify chords
display chords
guitar tuner
edit
Autoscroll
slow
fast
+/-
esc
set tempo
stop
Strumming
There is no strumming pattern for this song yet. and get +5 IQ
[Verse 1]
D                  Am
Lucifer, with your eyes of fire
F            C
Come back to me
D                       Am
Make sure that there is nothing left
F              C
Don't let them see
          F             C
What they never want to see
           F            G
What their eyes already lack
            Dm       Am
Just to get out from beneath

[Verse 2]
       Am              Am/G
I move forward, I move backward
       F               D
Cut my hand out on its sleeve
        F      C
Still i cannot find
        Am             G
Itching underneath the sheets
         Am                Am/G
Cloak of choking, spitting cover
        F             D
Dancing darker than I need
        F              C               D
We will see this world together in its terror

[Solo]
   Am                  F         C         D#        A#       Am
E|----------------------------------------------------------------------------------------|
B|----------------5/8-10b12-10-8------8----8-------------------------------------3-5-8----|
G|-2----4----5-------------------9--------------10-8-7----5-3-2----4----5----2-5----------|
D|----------------------------------------------------------------------------------------|
A|----------------------------------------------------------------------------------------|
E|----------------------------------------------------------------------------------------|

   F                   C         D#     A#           Dm          Am         C              G       D
E|-------10--------------------------------------------------------------------------------3-3--------|
B|-10b12----12b10-8---------8----8---------------------------------------------------3-3b5-----3-1-3v-|
G|---------------------9-----------10-8-7----8h10-10-10----9-7-5-5----2-0-2-5----2-5------------------|
D|----------------------------------------------------------------------------------------------------|
A|----------------------------------------------------------------------------------------------------|
E|----------------------------------------------------------------------------------------------------|

   D                                  C                     F                C                D
E|-------------------------------7----8v-7-8-7-8-10v-10b12v-12b10-8-7-8-7------------------------|
B|-7-7-7v----7-8-7-8-10v----8-10------------------------------------------10-8----5-8-5---5-8-7v-|
G|--------------------------------------------------------------------------------------7--------|
D|-----------------------------------------------------------------------------------------------|
A|-----------------------------------------------------------------------------------------------|
E|-----------------------------------------------------------------------------------------------|

                           C
E|----------------10-10b12-12-12-12-12-12b10-8v-|
B|-7-8-7-8-10v----------------------------------|
G|----------------------------------------------|
D|----------------------------------------------|
A|----------------------------------------------|
E|----------------------------------------------|

[Outro]
F            C
Come back to me
F            C
Come back to me
F            C
Come back to me
F            D
Come back to me

play along "Come back to me"              end  with
E|-------8v-7-8-7-------------------             E|--8v--7-8-7-8-10v----|
B|----------------10-8--------------             B|---------------------|
G|---------------------9v----7-5-7v-             G|---------------------|
D|----------------------------------             D|---------------------|
A|----------------------------------             A|---------------------|
E|----------------------------------             E|---------------------|



************************************

| b  Bend
| /  Slide up
| h  Hammer-on

************************************

            
            
Suggest correction
Creating personal tab
Creating personal tab
You can edit any tab online and save it as your Personal.

You can edit, replace or remove any tab part or add personal notes – all changes will be seen only by you.

Personal tabs can be accessed anytime from any device, even offline.
Learn more »
Give kudos to tab author, rate the tab!
1 2 3 4 5
comments
print report bad tab
guest
You may want to rate the tab now too:
select rating
Wanna post a correction for this tab? Suggest correction