Oops, an error
Loading. Please wait.

Bussi Baby chords

version 2
version 2

Whole song

by Wanda
3,667 views 33 this week
no commentswrite comment
1 2 3 4 5
x 8
add to favorites
×
Save as Personal and add changes to this tab that will be seen only by you. Learn more ›
×
You can save this tab as Personal to edit and correct it or add notes. All changes will be seen only by you. Learn more »
launch autoscroll
font size
0
reset
transpose
0
reset
display chords
guitar tuner
edit
Autoscroll
slow
fast
+/-
esc
set tempo
stop
Strumming
There is no strumming pattern for this song yet. and get +5 IQ
Riff 1
   PM-----------------|      ------------|   
e|----------------------------------------/7-5-------------------------|
B|-----------------------5---------------------7-----------------------|
G|-5-5-5---5-5-5---5-5-7------4-4-4---4-4------------------------------|
D|---------------------------------------------------------------------|
A|---------------------------------------------------------------------|
E|---------------------------------------------------------------------|

Riff 2
   PM-----------------|       ----------------------------------------------|     -----------|
e|---------------------/7-5-------------------------------------------------------------------/7-5-------|
B|----------------------------------------------------------------------------5--------------------7-----|
G|-7-7-7---7-7-7---7-7--------7-7-7---7-7-7---7-7-4-7---5-5-5---5-5-5---5-5-7-----4-4-4---4-4------------|
D|-------------------------------------------------------------------------------------------------------|
A|-------------------------------------------------------------------------------------------------------|
E|-------------------------------------------------------------------------------------------------------|

************************************


| b   Bend
| /   Slide up
| PM  Palm mute

************************************
[Intro]:
1x Riff 1
3x Riff 2

[Verse] :

D
Du wirst von Sternen high,
D
ich bin da nicht so frei,
C                            G
ich brauch schon Schnaps oder irgendwas (zum zahn!)
D
Mama wollte leben in Rom,
D
Mama träumt sich nach Berlin,
C                    G
aber Mama, Mama stirbt in Wien.
           D
Ja, ja, da hast es wieder
         D
gehst tanzen, legst dich nieder,
        D                               G
weil du weißt, man kriegt kein Weißes ohne Geld. (NEIN!)
           D
Ja, ja, da hast es wieder,
        D
nein nein - doch nicht schon wieder,
        D                                G
weil du weißt, man kriegt kein Weißes ohne Geld.

Sag, hast du ein

[Chorus]

D                                   F
Bussi Baby, Bussi Baby, Bussi Baby, Bussi Baby
D                                        G
Bussi Baby, Bussi Baby, Bussi Baby, oh Bussi Baby
D                                   C
Bussi Baby, Bussi Baby, Bussi Baby, Bussi Baby
D                                   F
Bussi Baby, Bussi Baby, Bussi Baby, Bussi Baby

[Solo] 

Rhythm Guitar [Riff 2]x2

Solo Guitar 2x :
e|--------------------------------------------------------|
B|--------------------------------------------------------|
G|-7-9-10-b11----7-9-10-b11---7-9-10-9-7---------7--------|
D|-----------------------------------------9-7-9----------|
A|--------------------------------------------------------|
E|--------------------------------------------------------|
Hast du ein?

[Chorus]

D                                   F
Bussi Baby, Bussi Baby, Bussi Baby, Bussi Baby
D                                        G
Bussi Baby, Bussi Baby, Bussi Baby, oohh Bussi Baby
D                                   C
Bussi Baby, Bussi Baby, Bussi Baby, Bussi Baby
D                                   F
Bussi Baby, Bussi Baby, Bussi Baby, Bussi Baby

D                                   F
Bussi Baby, Bussi Baby, Bussi Baby,    (ich brauch nur ein einziges)
D                                        G
Bussi Baby, Bussi Baby, Bussi Baby,    (ich brauch nur ein einziges)
D                                   C
Bussi Baby, Bussi Baby, Bussi Baby,     (ein einziges Bussi)
D                                   F
Bussi Baby, Bussi Baby, Bussi Baby,     (gib mir ein)

D                                   F
Bussi Baby, Bussi Baby, Bussi Baby,     (gib mir ein)
D                                        G
Bussi Baby, Bussi Baby, Bussi Baby,     (gib mir ein)
D                                   C
Bussi Baby, Bussi Baby, Bussi Baby,     
D                                   F
Bussi Baby, Bussi Baby, Bussi Baby, Bussy Baby





            
            
Suggest correction
Creating personal tab
Creating personal tab
You can edit any tab online and save it as your Personal.

You can edit, replace or remove any tab part or add personal notes – all changes will be seen only by you.

Personal tabs can be accessed anytime from any device, even offline.
Learn more »
comments
print report bad tab
guest
You may want to rate the tab now too:
select rating
Wanna post a correction for this tab? Suggest correction