Oops, an error
Loading. Please wait.

Cisco Kid bass

version 1
version 1

Whole song

Interactive

by War
9,725 views 18 this week
1 commentread comment
1 2 3 4 5
x 3
add to favorites
×
Save as Personal and add changes to this tab that will be seen only by you. Learn more ›
×
You can save this tab as Personal to edit and correct it or add notes. All changes will be seen only by you. Learn more »
launch autoscroll
font size
0
reset
guitar tuner
backing track
0:00
0:00
edit
Autoscroll
slow
fast
+/-
esc
set tempo
stop
Author
Difficulty
Intro
|------------------------------------|
|-11-13-11-13----9-10-9-10-----------|
|--------------------------9-11-9-11-|
|------------------------------------|

Verse        
|-------|
|-------|
|-0-3-5-|
|-------|x3 Then you play 
              the fill

Fill
|--35-----|
|-3--53---|
|------5--|
|-------5-|x1

Keep playing that Verse/Fill x12

Chorus
|-------|x2
|-------|
|-0>3>5-|> = hold until next note comes
|-------|

Verse/Fill x4

Chorus

Verse/Fill x10 and the tenth time is fading out

really good funk tune, also pretty good to impress your parents with
partly cause its from their time. but relatively easy, just takes 
timeing so have fun

            
            
Suggest correction
Creating personal tab
Creating personal tab
You can edit any tab online and save it as your Personal.

You can edit, replace or remove any tab part or add personal notes – all changes will be seen only by you.

Personal tabs can be accessed anytime from any device, even offline.
Learn more »
Give kudos to tab author, rate the tab!
1 2 3 4 5
comments
print report bad tab
1 comment total.
0 reply
jakemitraperth 10 Apr 10, 2015 06:56 AM

Cisco Kid by WAR

Bass Tabs by J. Mitra 2015

Intro

------------------------------------------------------------------------------
------------------------------------------------------------------------------
--3535---2323-------3535---0---3535------3535---2323------3535----0-----353535
--------------1313------013-1-------0101-------------1313------013-1----------

Verse

-------
-------
-0-3-5-
------- (repeat with fills)

High Fill
------------
---567------
-------0-3-5
------3-----

Low Fill
--------
--------
----0---
-013-1--

Chorus

--------------------------------
---------------------------------
-3--4--5----0--3--4--5---------35
---------013-1---------13-13-13--

guest
You may want to rate the tab now too:
select rating
Wanna post a correction for this tab? Suggest correction