Oops, an error
Loading. Please wait.

Why Cant We Be Friends bass

version 2
version 2

Whole song

by War
247 views 1 this week
no commentswrite comment
1 2 3 4 5
x 4
add to favorites
×
Save as Personal and add changes to this tab that will be seen only by you. Learn more ›
×
You can save this tab as Personal to edit and correct it or add notes. All changes will be seen only by you. Learn more »
launch autoscroll
font size
0
reset
guitar tuner
edit
Autoscroll
slow
fast
+/-
esc
set tempo
stop
Author
Difficulty
As I stated before, War is my favorite band, So I found it to be necessary to put the Correct  Bass tabs
for the song on the Website, As there was no accurate Tabs for it, I decided to change that!
I have been to a multitude of War concerts, so I know for certain that this is how it is played!


Tab by King Kenroy


This Is the Arrangement for the whole song, Once you play it through fully you Play it again from the top,
So you would keep playing this arrangement until the end of the song.  Again listen to the song for accurate
timing!


G|------------------------------------------3---2----------------------------|
D|-------------------------------3-3----3-3---3------------------------------|
A|---------0--1----------------------------------------------5--5------------|
E|---1--3--------------------------------------------------------------------|

G|---------------------------------------------------------------------------|
D|-----------5-5---5---------------------------------------5--4--3-----------|
A|-------5-5-----5----------3-3---3---------------------------------0-1------|
E|---------------------------------------------------------------------------|


G|----------------------3-3---------------------2-2--------------------------|
D|--------0-1------------------1-3-1-0---------------------------------------|
A|---1-1---------------------------------------------------------------------|
E|---------------------------------------------------------------------------|

G|---------------------------------------------------------------------------|
D|---------5-------------5-5--------5-5-4-3----------------------------------|
A|-----5-5---5-3---------------3------------3--------------------------------|
E|--------------------------------------------1------------------------------|


            
            
Suggest correction
Creating personal tab
Creating personal tab
You can edit any tab online and save it as your Personal.

You can edit, replace or remove any tab part or add personal notes – all changes will be seen only by you.

Personal tabs can be accessed anytime from any device, even offline.
Learn more »
comments
print report bad tab
guest
You may want to rate the tab now too:
select rating
Wanna post a correction for this tab? Suggest correction