Oops, an error
Loading. Please wait.

Strength Within intro tab

version 1
version 1

Intro

Interactive

5,469 views 1 this week
4 commentsread comments
1 2 3 4 5
2 more votes to show rating
add to favorites
×
Save as Personal and add changes to this tab that will be seen only by you. Learn more ›
×
You can save this tab as Personal to edit and correct it or add notes. All changes will be seen only by you. Learn more »
launch autoscroll
font size
0
reset
how to read this tab
guitar tuner
edit
Autoscroll
slow
fast
+/-
esc
set tempo
stop
Author
Difficulty
Tabbed By Christian Sweeney (Xiion)

Don't pay attention to timing, notes only.
     PM                                         PM PM PM PM PM PM PM PM PM
     E                                          E  E  E  E  E  E  E  E  E  E   E
E||------------------------------------------------------------------------------|
B||------------------------------------------------------------------------------|
G||------------------------------------------------------------------------------|
D||------------------------------------------------------------------------9p--7-|
A||--4------------------------------------------4--4--6--6--6--7--7--7--7--------|
D||------------------------------------------------------------------------------|


  PM PM PM PM PM PM
  E  E  E  E  E  E  E   E  E   E  E   E
-----------------------------------------|
-----------------------------------------|
-----------------------------------------|
--9--9--9--7--7--7--6h--7--4h--6--4s--2--|
-----------------------------------------|
-----------------------------------------|


  PM PM PM PM PM PM PM PM PM PM
  E  E  E  E  E  E  E  E  E  E  E   E  E
------------------------------------------|
------------------------------------------|
------------------------------------------|
--------------------------------9p--7--7--|
--4--4--4--6--6--6--7--7--7--7------------|
------------------------------------------|


  PM PM PM PM PM PM
  E  E  E  E  E  E   E    E   E    E  E    E  E   E
-----------------------------------------------------|
-----------------------------------------------------|
--------------------13h--14--11h--13--9h--11--8h--9--|
--9--9--9--7--7--7-----------------------------------|
-----------------------------------------------------|
-----------------------------------------------------|


  E    E  E  E  E   E    E    E    E   E    E  E   E    E   E    E  E    E  E
--------------------------------------------------------------------------------|
--------------------------------------------------------------------------------|
----------9--8------------------------13~--11--9--13h--14--11h--13--9h--11--8h--|
--9h--11--------9--11~--11h--13h--14--------------------------------------------|
--------------------------------------------------------------------------------|
--------------------------------------------------------------------------------|


  E    E  E  E  E   E    E    E    E   E    E  E   E    E   E    E  E    E  E
--------------------------------------------------------------------------------|
--------------------------------------------------------------------------------|
----------9--8------------------------13~--11--9--13h--14--11h--13--9h--11--8h--|
--9h--11--------9--11~--11h--13h--14--------------------------------------------|
--------------------------------------------------------------------------------|
--------------------------------------------------------------------------------|


  E    E  E  E  E   E    E    E    E   E    E  E   E    E   E    E  E    E  E
--------------------------------------------------------------------------------|
--------------------------------------------------------------------------------|
----------9--8------------------------13~--11--9--13h--14--11h--13--9h--11--8h--|
--9h--11--------9--11~--11h--13h--14--------------------------------------------|
--------------------------------------------------------------------------------|
--------------------------------------------------------------------------------|


  E    E  E  E  E   E    E    E    E   E    E  E   E    E   E    E  E    E  E
--------------------------------------------------------------------------------|
--------------------------------------------------------------------------------|
----------9--8------------------------13~--11--9--13h--14--11h--13--9h--11--8h--|
--9h--11--------9--11~--11h--13h--14--------------------------------------------|
--------------------------------------------------------------------------------|
--------------------------------------------------------------------------------|


Duration Legend
---------------
W - whole
H - half
Q - quarter
E - 8th
S - 16th
T - 32nd
X - 64th
. - note dotted
|-n-|  - n-tuplets


Tablature Legend
----------------
L - tied note
x - dead note
g - grace note
(n) - ghost note
> - accentuded note
NH - natural harmonic
AH - artificial harmonic
TH - tapped harmonic
SH - semi harmonic
PH - pitch harmonic
h - hammer on
p - pull off
b - bend
br - bendRelease
pb - preBend
pbr - preBendRelease
brb - bendReleaseBend
\n/ - tremolo bar dip
\n - tremolo bar dive
-/n - tremolo bar Release up
/n\ - tremolo bar inverted dip
/n - tremolo bar return
-\n - tremolo bar Release down
S - shift slide
s - legato slide
/ -  slide into from below or out of upwards
\ -  slide into from above or out of downwards
~ - vibrato
W - wide vibrato
tr - trill
TP - tremolo picking
T - tapping
S - slap
P - pop
< - fade in
^ - brush up
v - brush down

            
            
Suggest correction
Creating personal tab
Creating personal tab
You can edit any tab online and save it as your Personal.

You can edit, replace or remove any tab part or add personal notes – all changes will be seen only by you.

Personal tabs can be accessed anytime from any device, even offline.
Learn more »
Give kudos to tab author, rate the tab!
1 2 3 4 5
comments
print report bad tab
4 comments total. Showing first comments.
+1 reply
Emericask8r3506 155 Sep 03, 2007 12:33 PM

first of all...it's in Drop Db.
so all the notes are up ONE fret.
there are 2 guitar parts, but i'm too lazy.
so here's 2nd guitar.

2nd Guitar
Eb|-------------------------------|
Bb|-------------------------------|
Gb|-------------------------------|
Db|------------------------10p0---|
Ab|-5-5-5--7-7-7--8-8-8-8-------8-|
Db|-------------------------------|

Eb|----------------------------------|
Bb|----------------------------------|
Gb|----------------------------------|
Db|-10-10--8-8--7-7--8-7h8--5-7--5/3-|
Ab|----------------------------------|
Db|----------------------------------|

Eb|-------------------------------|
Bb|-------------------------------|
Gb|-------------------------------|
Db|------------------------10p0---|
Ab|-5-5-5--7-7-7--8-8-8-8-------8-|
Db|-------------------------------|

Eb|-----------------------------------------|
Bb|-----------------------------------------|
Gb|---------------------14h15-12h14-10h12-9-|
Db|-10-10--8-8--7-7--8----------------------|
Ab|-----------------------------------------|
Db|-----------------------------------------|

(i play 15. it's alot easier. but 10 on the high Db string works too)
Eb|--------------------------------------------------------------|
Bb|--------------------------------------------------------------|
Gb|------------------------------14~--12-10--14h15-12h14-10h12-9-|
Db|-12h14h15-14----12~--12h14h15---------------------------------|
Ab|------------(15)----------------------------------------------|
Db|--------------------------------------------------------------|

Eb|----------------------------------------------------------|
Bb|----------------------------------------------------------|
Gb|-----------------------------14~-12-10-9h12-9h10----------|
Db|-12h14h15-14----12~-12h14h15---------------------14p12-10-|
Ab|------------(15)------------------------------------------|
Db|----------------------------------------------------------|

Eb|--------------------------------------------------------------|
Bb|--------------------------------------------------------------|
Gb|------------------------------14~--12-10--14h15-12h14-10h12-9-|
Db|-12h14h15-14----12~--12h14h15---------------------------------|
Ab|------------(15)----------------------------------------------|
Db|--------------------------------------------------------------|

Eb|-------------------------------------------------------------|
Bb|-------------------------------------------------------------|
Gb|-----------------------------14~-12-10-9h12-9h10-------------|
Db|-12h14h15-14----12~-12h14h15---------------------14p12-10h12-|
Ab|------------(15)---------------------------------------------|
Db|-------------------------------------------------------------|

hopefully, that helps a little.

0 reply
Wingless7 10 Jan 13, 2009 06:18 PM

Hey Xiion are u christian? oh...and are u gunna do the rest of the song/tab bcuz i cant find the whole tab anywhere else...

0 reply
fadetoblack84 20 Aug 08, 2009 04:33 PM

Emerica got the tuning correct, consider changing it.

guest
You may want to rate the tab now too:
select rating
Wanna post a correction for this tab? Suggest correction