Oops, an error
Loading. Please wait.

High Heels On Cobblestone tab

version 1
version 1

Whole song

Interactive

by Warmen
481 views 1 this week
no commentswrite comment
1 2 3 4 5
3 more votes to show rating
add to favorites
×
Save as Personal and add changes to this tab that will be seen only by you. Learn more ›
×
You can save this tab as Personal to edit and correct it or add notes. All changes will be seen only by you. Learn more »
launch autoscroll
font size
0
reset
how to read this tab
guitar tuner
edit
Autoscroll
slow
fast
+/-
esc
set tempo
stop
#----------------------------------PLEASE NOTE---------------------------------#
#This file is the author's own work and represents their interpretation of the #
#song. You may only use this file for private study, scholarship, or research. #
#------------------------------------------------------------------------------#

HIGH HEELS ON COBBLESTONE
As recorded by Warmen
(From the 2009 Album JAPANESE HOSPITALITY)

Transcribed by Mitch DuCran
        

Words and Music by Warmen

Gtr I (D G C F A D) - '2 Guitars'
Gtr II (D G C F A D) - 'Reverse Cymbol'
Gtr III (D G C F A D) - 'Synth Strings'
Gtr IV (D G C F A D) - 'Solo'
Gtr V (D G C F A D) - 'Lead 2 (sawtooth)'

 A
  Q=142
 4/4
  Gtr I
          PM   PM    PM
  E E S S S E. E S S S S
|------------------------|
|------------------------|
|------------------------|
|------------------------|
|-2-2--------------------|
|-0-0-5-3-0-0--0-5-3-0-0-|


      PM    PM                                                 PM   PM    PM
                  |---3---|   |---3---|   |---3---|
  +E  E S S S E.  S   S   S   S   S   S   S   S   S    E E S S S E. E S S S S
|--------------------------------<5>-----------------|-------------------------|
|----------------------------<5>-----<5>-------------|-------------------------|
|------------------------<5>-------------<5>---------|-------------------------|
|--------------------<5>---------------------<5>-----|-------------------------|
|----------------<5>-----------------------------<5>-|-------------------------|
|-(0)-0-5-3-0-0--------------------------------------|-0-0-5-3-0-0--0-5-3-0-0--|


                                              PM   PM    PM
  +E  S S S S S S S S S S S S S S   +E  E S S S E. E S S S S
|---------------------------------|--------------------------|
|---------------------------------|--------------------------|
|---------------------------------|--------------------------|
|-----------------------5---------|--------------------------|
|-----------4-------------------2-|-(2)-2--------------------|
|-(0)-3h5-6---6-5-3-5-6---6-5-3-0-|-(0)-0-5-3-0-0--0-5-3-0-0-|


      PM    PM
                  |---3---|   |---3---|   |---3---|
  +E  E S S S E.  S   S   S   S   S   S   S   S   S
|--------------------------------<5>------------------|
|----------------------------<5>-----<5>--------------|
|------------------------<5>-------------<5>----------|
|--------------------<5>---------------------<5>------|
|----------------<5>-----------------------------<5>--|
|-(0)-0-5-3-0-0---------------------------------------|


          PM   PM    PM            PM  PM------|   PM-------
  E E S S S E. E S S S S   +E  S S S S S S S S S S S S S S
|------------------------|---------------------------------|
|------------------------|---------------------------------|
|------------------------|---------------------------------|
|------------------------|-----------------------5---------|
|------------------------|-------0-1-4---------------------|
|-0-0-5-3-0-0--0-5-3-0-0-|-(0)-3-------6-5-3-5-6---6-5-3-5-|


 -|   PM------|   PM------|   PM|
  S S S S S S S S S S S S S S S S   H.      Q
|---------------------------------|--------------||
|---------------------------------|--------------||
|---------------------------------|--------------||
|---------------5-----------------|--------------||
|---4-----------------------4-----|-2------------||
|-6---6-5-3-5-6---6-5-3-5-6---6-5-|-0-------7\---||


 B
      PM----------------------------------------------------|
  E E S S S S S S S S S S S S   S S S S S S S S S S S S S S S S
|-----------------------------|---------------------------------|
|-----------------------------|---------------------------------|
|-----------------------------|---------------------------------|
|-----------------------------|---------------------------------|
|-3-2-------------------------|---------------------------------|
|-1-0-0-0-0-0---0-0---0-0-0-0-|---0-0---0-0-0-0---0-0---0-0-0---|


      PM------------------|
  E E S S S S S S S S S S S S
|------------------------------|
|------------------------------|
|------------------------------|
|------------------------------|
|-3-2--------------------------|
|-1-0-0-0-0-0---0-0---0-0-0----|


   PM------------------------------------------------------------------|
   |--3--|  |--3--|  |--3--|  |--3--|  |--3--|  |--3--|  |--3--|  |--3--|
   S  S  S  S  S  S  S  S  S  S  S  S  S  S  S  S  S  S  S  S  S  S  S  S
|-------------------------------------------------------------------------|
|-------------------------------------------------------------------------|
|-------------------------------------------------------------------------|
|-------------------------------------------------------------------------|
|-10----------------10----------------10----------------10----------------|
|----12-11-10-11-12----12-11-10-11-12----12-11-10-11-12----12-11-10-11-12-|


      PM----------------------------------------------------|
  E E S S S S S S S S S S S S   S S S S S S S S S S S S S S S S
|-----------------------------|---------------------------------|
|-----------------------------|---------------------------------|
|-----------------------------|---------------------------------|
|-----------------------------|---------------------------------|
|-3-2-------------------------|---------------------------------|
|-1-0-0-0-0-0---0-0---0-0-0-0-|---0-0---0-0-0-0---0-0---0-0-0---|


      PM------------------|
  E E S S S S S S S S S S S S
|------------------------------|
|------------------------------|
|------------------------------|
|------------------------------|
|-3-2--------------------------|
|-1-0-0-0-0-0---0-0---0-0-0----|


   PM------------------------------------------------------------------|
   |--3--|  |--3--|  |--3--|  |--3--|  |--3--|  |--3--|  |--3--|  |--3--|
   S  S  S  S  S  S  S  S  S  S  S  S  S  S  S  S  S  S  S  S  S  S  S  S
|-------------------------------------------------------------------------|
|-------------------------------------------------------------------------|
|-------------------------------------------------------------------------|
|-12----------------12----------------12----------------12----------------|
|----14-13-12-13-14----14-13-12-13-14----14-13-12-13-14----14-13-12-13-14-|
|-------------------------------------------------------------------------|


      PM----------------------------------------------------|
  E E S S S S S S S S S S S S   S S S S S S S S S S S S S S S S
|-----------------------------|---------------------------------|
|-----------------------------|---------------------------------|
|-----------------------------|---------------------------------|
|-----------------------------|---------------------------------|
|-3-2-------------------------|---------------------------------|
|-1-0-0-0-0-0---0-0---0-0-0-0-|---0-0---0-0-0-0---0-0---0-0-0---|


      PM------------------|
  E E S S S S S S S S S S S S
|------------------------------|
|------------------------------|
|------------------------------|
|------------------------------|
|-3-2--------------------------|
|-1-0-0-0-0-0---0-0---0-0-0----|


   PM------------------------------------------------------------------|
   |--3--|  |--3--|  |--3--|  |--3--|  |--3--|  |--3--|  |--3--|  |--3--|
   S  S  S  S  S  S  S  S  S  S  S  S  S  S  S  S  S  S  S  S  S  S  S  S
|-------------------------------------------------------------------------|
|-------------------------------------------------------------------------|
|-------------------------------------------------------------------------|
|-------------------------------------------------------------------------|
|-10----------------10----------------10----------------10----------------|
|----12-11-10-11-12----12-11-10-11-12----12-11-10-11-12----12-11-10-11-12-|


      PM----------------------------------------------------|
  E E S S S S S S S S S S S S   S S S S S S S S S S S S S S S S
|-----------------------------|---------------------------------|
|-----------------------------|---------------------------------|
|-----------------------------|---------------------------------|
|-----------------------------|---------------------------------|
|-3-2-------------------------|---------------------------------|
|-1-0-0-0-0-0---0-0---0-0-0-0-|---0-0---0-0-0-0---0-0---0-0-0---|


      PM------------------|
  E E S S S S S S S S S S S S
|------------------------------|
|------------------------------|
|------------------------------|
|------------------------------|
|-3-2--------------------------|
|-1-0-0-0-0-0---0-0---0-0-0----|


   PM------------------------------------------------------------------|
   |--3--|  |--3--|  |--3--|  |--3--|  |--3--|  |--3--|  |--3--|  |--3--|
   S  S  S  S  S  S  S  S  S  S  S  S  S  S  S  S  S  S  S  S  S  S  S  S
|-------------------------------------------------------------------------||
|-------------------------------------------------------------------------||
|-------------------------------------------------------------------------||
|-12----------------12----------------12----------------12----------------||
|----14-13-12-13-14----14-13-12-13-14----14-13-12-13-14----14-13-12-13-14-||
|-------------------------------------------------------------------------||


 C
          ~       ~~~~~~~~~     ~~~
  E E S S Q  E E  E    +E  E E  Q   E E E
|--------------------|--------------------|
|--------------------|--------------------|
|--------------------|--------------------|
|--------------------|--------------------|
|-3-2----------------|--------------------|
|-1-0-3s8-7--0-5-[7]-|-(7)-0-3-[5]--0-2-3-|


          ~       ~~~~~~~~~     PM|
  E E S S Q  E E  E    +E  E Q  E E Q
|--------------------|-----------------|
|--------------------|-----------------|
|--------------------|-----------------|
|--------------------|-------9------9--|
|-3-2----------------|-------7------7--|
|-1-0-3s8-7--0-5-[7]-|-(7)-0----0-0----|


                                                               Gtr II
                                                                   <
          ~       ~~~~~~~~~     ~~~                 ~
  E E S S Q  E E  E    +E  E E  Q   E E E   E E S S Q  E E E   Q   H.
|--------------------|--------------------|------------------|-----------||
|--------------------|--------------------|------------------|-----------||
|--------------------|--------------------|------------------|----10-----||
|--------------------|--------------------|------------------|----12-----||
|-3-2----------------|--------------------|-3-2------------9-|-----------||
|-1-0-3s8-7--0-5-[7]-|-(7)-0-3-[5]--0-2-3-|-1-0-3s8-7--0-5-7-|-----------||


 D
  Gtr I
      PM----------------------------------------------------|
  E E S S S S S S S S S S S S   S S S S S S S S S S S S S S S S
|-----------------------------|---------------------------------|
|-----------------------------|---------------------------------|
|-----------------------------|---------------------------------|
|-----------------------------|---------------------------------|
|-3-2-------------------------|---------------------------------|
|-1-0-0-0-0-0---0-0---0-0-0-0-|---0-0---0-0-0-0---0-0---0-0-0---|


      PM------------------|
  E E S S S S S S S S S S S S
|------------------------------|
|------------------------------|
|------------------------------|
|------------------------------|
|-3-2--------------------------|
|-1-0-0-0-0-0---0-0---0-0-0----|


   PM------------------------------------------------------------------|
   |--3--|  |--3--|  |--3--|  |--3--|  |--3--|  |--3--|  |--3--|  |--3--|
   S  S  S  S  S  S  S  S  S  S  S  S  S  S  S  S  S  S  S  S  S  S  S  S
|-------------------------------------------------------------------------|
|-------------------------------------------------------------------------|
|-------------------------------------------------------------------------|
|-------------------------------------------------------------------------|
|-10----------------10----------------10----------------10----------------|
|----12-11-10-11-12----12-11-10-11-12----12-11-10-11-12----12-11-10-11-12-|


      PM----------------------------------------------------|
  E E S S S S S S S S S S S S   S S S S S S S S S S S S S S S S
|-----------------------------|---------------------------------|
|-----------------------------|---------------------------------|
|-----------------------------|---------------------------------|
|-----------------------------|---------------------------------|
|-3-2-------------------------|---------------------------------|
|-1-0-0-0-0-0---0-0---0-0-0-0-|---0-0---0-0-0-0---0-0---0-0-0---|


      PM------------------|
  E E S S S S S S S S S S S S
|------------------------------|
|------------------------------|
|------------------------------|
|------------------------------|
|-3-2--------------------------|
|-1-0-0-0-0-0---0-0---0-0-0----|


   PM------------------------------------------------------------------|
   |--3--|  |--3--|  |--3--|  |--3--|  |--3--|  |--3--|  |--3--|  |--3--|
   S  S  S  S  S  S  S  S  S  S  S  S  S  S  S  S  S  S  S  S  S  S  S  S
|-------------------------------------------------------------------------|
|-------------------------------------------------------------------------|
|-------------------------------------------------------------------------|
|-12----------------12----------------12----------------12----------------|
|----14-13-12-13-14----14-13-12-13-14----14-13-12-13-14----14-13-12-13-14-|
|-------------------------------------------------------------------------|


      PM----------------------------------------------------|
  E E S S S S S S S S S S S S   S S S S S S S S S S S S S S S S
|-----------------------------|---------------------------------|
|-----------------------------|---------------------------------|
|-----------------------------|---------------------------------|
|-----------------------------|---------------------------------|
|-3-2-------------------------|---------------------------------|
|-1-0-0-0-0-0---0-0---0-0-0-0-|---0-0---0-0-0-0---0-0---0-0-0---|


      PM------------------|
  E E S S S S S S S S S S S S
|------------------------------|
|------------------------------|
|------------------------------|
|------------------------------|
|-3-2--------------------------|
|-1-0-0-0-0-0---0-0---0-0-0----|


   PM------------------------------------------------------------------|
   |--3--|  |--3--|  |--3--|  |--3--|  |--3--|  |--3--|  |--3--|  |--3--|
   S  S  S  S  S  S  S  S  S  S  S  S  S  S  S  S  S  S  S  S  S  S  S  S
|-------------------------------------------------------------------------|
|-------------------------------------------------------------------------|
|-------------------------------------------------------------------------|
|-------------------------------------------------------------------------|
|-10----------------10----------------10----------------10----------------|
|----12-11-10-11-12----12-11-10-11-12----12-11-10-11-12----12-11-10-11-12-|


      PM----------------------------------------------------|
  E E S S S S S S S S S S S S   S S S S S S S S S S S S S S S S
|-----------------------------|---------------------------------|
|-----------------------------|---------------------------------|
|-----------------------------|---------------------------------|
|-----------------------------|---------------------------------|
|-3-2-------------------------|---------------------------------|
|-1-0-0-0-0-0---0-0---0-0-0-0-|---0-0---0-0-0-0---0-0---0-0-0---|


      PM------------------|
  E E S S S S S S S S S S S S
|------------------------------|
|------------------------------|
|------------------------------|
|------------------------------|
|-3-2--------------------------|
|-1-0-0-0-0-0---0-0---0-0-0----|


   PM------------------------------------------------------------------|
   |--3--|  |--3--|  |--3--|  |--3--|  |--3--|  |--3--|  |--3--|  |--3--|
   S  S  S  S  S  S  S  S  S  S  S  S  S  S  S  S  S  S  S  S  S  S  S  S
|-------------------------------------------------------------------------||
|-------------------------------------------------------------------------||
|-------------------------------------------------------------------------||
|-12----------------12----------------12----------------12----------------||
|----14-13-12-13-14----14-13-12-13-14----14-13-12-13-14----14-13-12-13-14-||
|-------------------------------------------------------------------------||


 E
          ~       ~~~~~~~~~     ~~~
  E E S S Q  E E  E    +E  E E  Q   E E E
|--------------------|--------------------|
|--------------------|--------------------|
|--------------------|--------------------|
|--------------------|--------------------|
|-3-2----------------|--------------------|
|-1-0-3s8-7--0-5-[7]-|-(7)-0-3-[5]--0-2-3-|


          ~       ~~~~~~~~~     PM|
  E E S S Q  E E  E    +E  E Q  E E Q
|--------------------|-----------------|
|--------------------|-----------------|
|--------------------|-----------------|
|--------------------|-------9------9--|
|-3-2----------------|-------7------7--|
|-1-0-3s8-7--0-5-[7]-|-(7)-0----0-0----|


          ~       ~~~~~~~~~     ~~~                 ~
  E E S S Q  E E  E    +E  E E  Q   E E E   E E S S Q  E E E   W
|--------------------|--------------------|------------------|------||
|--------------------|--------------------|------------------|------||
|--------------------|--------------------|------------------|------||
|--------------------|--------------------|------------------|------||
|-3-2----------------|--------------------|-3-2------------9-|------||
|-1-0-3s8-7--0-5-[7]-|-(7)-0-3-[5]--0-2-3-|-1-0-3s8-7--0-5-7-|------||


 F
   E E Q  E E Q      E  E Q  S S S S S S S S
|----------------|---------------------------|
|----------------|---------------------------|
|----------------|---------------------------|
|----------------|---------------------------|
|--4-4----4-4----|---4--4--------------------|
|--2-2----2-2----|---2--2----2s9-9-9-9-9-9-9-|
|
| Gtr III
|  W                +W
|----------------|---------------------------|
|-19-------------|-(19)----------------------|
|-18-------------|-(18)----------------------|
|-16-------------|-(16)----------------------|
|----------------|---------------------------|
|--0-------------|--(0)----------------------|


                                     PM---------|
    E  E Q  E E Q      E  E Q    E   S  S S S S S
|------------------|--------------------------------|
|------------------|--------------------------------|
|------------------|--------------------------------|
|------------------|--------------------------------|
|---4--4----4-4----|---4--4------4------------------|
|---2--2----2-2----|---2--2------2---0--0-0-0-0-0---|
|
|  +W                 +H        +E   Q.
|------------------|--------------------------------|
|-(19)-------------|-(19)------(19)-17--------------|
|-(18)-------------|-(18)------(18)-16--------------|
|-(16)-------------|-(16)------(16)-14--------------|
|------------------|--------------------------------|
|--(0)-------------|--(0)-------(0)--2--------------|


   E     E Q  E E Q      E  E Q  S S S S S S S S
|--------------------|---------------------------|
|--------------------|---------------------------|
|--------------------|---------------------------|
|--------------------|---------------------------|
|--4-----4----4-4----|---4--4--------------------|
|--2-----2----2-2----|---2--2----2s9-9-9-9-9-9-9-|
|
|  W                    +W
|--------------------|---------------------------|
|-17b19==============|=(17)----------------------|
|-16b18==============|=(16)----------------------|
|-14b16==============|=(14)----------------------|
|--------------------|---------------------------|
|--2b4===============|==(2)----------------------|


                                        PM----|
    E  E Q  E E Q      E  E Q    E   E  S S S S
|------------------|----------------------------|
|------------------|----------------------------|
|------------------|----------------------------|
|------------------|----------------------------|
|---4--4----4-4----|---4--4------4---2----------|
|---2--2----2-2----|---2--2------2---0--3-3-3-3-|
|
|  +W                 +H        +E   Q.
|------------------|----------------------------|
|-(17)-------------|-(17)------(17)-17r---------|
|-(16)-------------|-(16)------(16)-16r---------|
|-(14)-------------|-(14)------(14)-14r---------|
|------------------|----------------------------|
|--(2)-------------|--(2)-------(2)--2r---------|


          PM   PM    PM              PM     PM    PM
  E E S S S E. E S S S S   +E  E S S S E.   E S S S S
|------------------------|----------------------------||
|------------------------|----------------------------||
|------------------------|----------------------------||
|------------------------|----------------------------||
|------------------------|----------------------------||
|-0-0-5-3-0-0--0-5-3-0-0-|-(0)-0-5-3-0-0----0-5-3-0-0-||
|
| Gtr IV
| W                         H             E E S S E
|------------------------|----------------------------||
|------------------------|----------------------------||
|------------------------|----------------------------||
|------------------------|------------------x-2s9s2---||
|------------------------|------------------x---------||
|------------------------|----------------------------||


 G
               PM------|      PM|      PM------|
   E     E     S  S  S  S  S  S  S  S  S  S  S  S
|-------------------------------------------------|
|-------------------------------------------------|
|-------------------------------------------------|
|-------------------------------------------------|
|--5-----4----------------------------------------|
|--3-----2-----2--2--2--2-----2--2-----2--2--2--2-|
|
|  S  S  S  S  S  S  S  S  S  S  S  S  S  S  S  S
|-------------------------------------------------|
|-------17-------17-------17-------17-------17----|
|-14-16----14-16----14-16----14-16----14-16----14-|
|-------------------------------------------------|
|-------------------------------------------------|
|-------------------------------------------------|


      PM|      PM------|       PM|   PM--|
   S  S  S  S  S  S  S   S   S S S S S S S S
|--------------------------------------------|
|--------------------------------------------|
|--------------------------------------------|
|--------------------------------------------|
|--------------------------------------------|
|-----2--2-----2--2--2---2-----2-2---2-2-2---|
|
|                            ~~
|  S  S  S  S  S  S  S   S   H
|--------------------------------------------|
|----17-------17----17---x--17---------------|
|-16----14-16----16----(16)------------------|
|------------------------x-------------------|
|--------------------------------------------|
|--------------------------------------------|


               PM------|      PM|      PM---|
   E     E     S  S  S  S  S  S  S  S  S  S  S  S
|-------------------------------------------------|
|-------------------------------------------------|
|-------------------------------------------------|
|-------------------------------------------------|
|--5-----4----------------------------------------|
|--3-----2-----2--2--2--2-----2--2-----2--2--2----|
|
|  E     S  S  S  S  S  S  S  S  S  S  S  S  S  S
|-------------------------------------------14----|
|-17b19r14----------------14----------------------|
|----------17-16-14-16-17----17-16-14-16-17----17-|
|-------------------------------------------------|
|-------------------------------------------------|
|-------------------------------------------------|


   H                       H
|--------------------------------------|
|--------------------------------------|
|--------------------------------------|
|--------------------------4-----------|
|--2-----------------------2-----------|
|--0-----------------------------------|
|
|                          ~~~~~~~~
|  S  S  S  S  S  S  S  S  Q   +E.  S
|----------------------------------12s=|
|--------------------------------------|
|-16-14--------------------------------|
|-------16-15-14-----------------------|
|----------------16-15-14--------------|
|-------------------------17--(17)-----|


                     PM--------------|          PM---|           PM--------------|
   E        E        S    S     S    S     S    S     S    S     S    S     S    S
|-------------------------------------------------------------------------------------|
|-------------------------------------------------------------------------------------|
|-------------------------------------------------------------------------------------|
|-------------------------------------------------------------------------------------|
|--5--------4-------------------------------------------------------------------------|
|--3--------2--------2----2-----2----2----------2-----2----------2----2-----2----2----|
|
|              PM|                 PM--|                 PM--|                 PM--|
|  |--3--|  |--3--|  |---3---|  |---3---|  |---3---|  |---3---|  |---3---|  |---3---|
|  S  S  S  S  S  S  S  S    S  S  S    S  S  S    S  S  S    S  S  S    S  S  S    S
|-14-12-14-12-------14-12---14-12---------14-12---14-12---------14-12---14-12---------|
|-------------14-12---------------14---12---------------14---12---------------14---12-|
|-------------------------------------------------------------------------------------|
|-------------------------------------------------------------------------------------|
|-------------------------------------------------------------------------------------|
|-------------------------------------------------------------------------------------|


        PM---|           PM--------------|          PM|   PM--|
   S    S     S    S     S    S     S    S     S    S S S S S S S
|--------------------------------------------------------------------|
|--------------------------------------------------------------------|
|--------------------------------------------------------------------|
|--------------------------------------------------------------------|
|--------------------------------------------------------------------|
|-------2-----2----------2----2-----2----2----------2-2---2-2-2------|
|
|                PM--|                 PM--|   ~~~~~
|  |---3---|  |---3---|  |---3---|  |---3---|
|  S  S    S  S  S    S  S  S    S  S  S    S  H
|-14-12---14-12---------14-12---14-12---------17b19------------------|
|---------------14---12---------------14---12------------------------|
|--------------------------------------------------------------------|
|--------------------------------------------------------------------|
|--------------------------------------------------------------------|
|--------------------------------------------------------------------|


                    PM-------------|          PM---|          PM--------|
   E       E        S    S    S    S     S    S    S    S     S    S    S    S
|---------------------------------------------------------------------------------|
|---------------------------------------------------------------------------------|
|---------------------------------------------------------------------------------|
|---------------------------------------------------------------------------------|
|--5-------4----------------------------------------------------------------------|
|--3-------2--------2----2----2----2----------2----2----------2----2----2---------|
|
|  |------5------|  |--------5--------|  |--------5--------|  |--------5--------|
|  S  S  S    S  S  S  S    S    S    S  S  S    S    S    S  S  S    S    S    S
|-17-14------------------------------14-17-14----------------------------------14-|
|-------17---14------------14---17--------------17---14--------------14---17------|
|---------------16-14-16----------------------------------16-14-16----------------|
|---------------------------------------------------------------------------------|
|---------------------------------------------------------------------------------|
|---------------------------------------------------------------------------------|


   H                       H
|-------------------------------------------------||
|-------------------------------------------------||
|-------------------------------------------------||
|--------------------------4----------------------||
|--2-----------------------2----------------------||
|--0----------------------------------------------||
|
|  S  S  S  S  S  S  S  S  S  S  S  S  S  S  S  S
|-17-17-17-17-19-19-19-19-21-21-21-21-24-24-24-24-||
|-------------------------------------------------||
|-------------------------------------------------||
|-------------------------------------------------||
|-------------------------------------------------||
|-------------------------------------------------||


 H
   E          E      S   S     S   S    S   S     S   S    S   S     S   S
|----------------------------------------------------------------------------|
|----------------------------------------------------------------------------|
|----------------------------------------------------------------------------|
|--6----------5--------------------------------------------------------------|
|--4----------3------3---3-----3---3--------3-----3--------3---3-----3---3---|
|----------------------------------------------------------------------------|
|
|  ~~~~~
|  W
|-24b26----------------------------------------------------------------------|
|----------------------------------------------------------------------------|
|----------------------------------------------------------------------------|
|----------------------------------------------------------------------------|
|----------------------------------------------------------------------------|
|----------------------------------------------------------------------------|
|
| Gtr V
|  |---3---|  |-3-|  |--3---|  |--3--|  |--3---|  |--3--|  |--3---|  |--3--|
|  S    S  S  S S S  S S    S  S S   S  S S    S  S S   S  S S    S  S S   S
|-11----9-11-10-9-8-11-9---11-10-9---8-11-9---11-10-9---8-11-9---11-10-9---8-|
|----------------------------------------------------------------------------|
|----------------------------------------------------------------------------|
|----------------------------------------------------------------------------|
|----------------------------------------------------------------------------|
|----------------------------------------------------------------------------|


   S   S     S   S    S   S     S   S    S   S     S   S    S   S     S   S
|-------------------------------------------------------------------------------|
|-------------------------------------------------------------------------------|
|-------------------------------------------------------------------------------|
|-------------------------------------------------------------------------------|
|------3-----3--------3---3-----3---3--------3-----3--------3---3-----3---------|
|-------------------------------------------------------------------------------|
|
|  W
|-------------------------------------------------------------------------------|
|-------------------------------------------------------------------------------|
|-------------------------------------------------------------------------------|
|-------------------------------------------------------------------------------|
|-------------------------------------------------------------------------------|
|-------------------------------------------------------------------------------|
|
|  |--3---|  |--3--|  |--3---|  |--3--|  |--3---|  |--3--|  |--3---|  |--3--|
|  S S    S  S S   S  S S    S  S S   S  S S    S  S S   S  S S    S  S S   S
|-11-9---11-10-9---8-11-9---11-10-9---8-11-9---11-10-9---8-11-9---11-10-9---8---|
|-------------------------------------------------------------------------------|
|-------------------------------------------------------------------------------|
|-------------------------------------------------------------------------------|
|-------------------------------------------------------------------------------|
|-------------------------------------------------------------------------------|


   E        E        S    S     S    S     S    S     S    S     S    S     S    S
|---------------------------------------------------------------------------------------------|
|---------------------------------------------------------------------------------------------|
|---------------------------------------------------------------------------------------------|
|--6--------5---------------------------------------------------------------------------------|
|--4--------3--------3----3-----3----3----------3-----3----------3----3-----3-----------------|
|---------------------------------------------------------------------------------------------|
|
| Gtr V
|  |--3--|  |--3--|  |---3---|  |---3---|  |---3---|  |---3---|  |----3-----|          |-3-|
|  S  S  S  S  S  S  S  S    S  S  S    S  S  S    S  S  S    S  S  S    S  S  T    T  X  +X
|-14-11-14-12-11-10-16-14---16-15-14---13-18-16---18-17-16---15-20-18---20-19-18---17-16-(16)-|
|---------------------------------------------------------------------------------------------|
|---------------------------------------------------------------------------------------------|
|---------------------------------------------------------------------------------------------|
|---------------------------------------------------------------------------------------------|
|---------------------------------------------------------------------------------------------|


   H                       H
|---------------------------------------------------|
|---------------------------------------------------|
|---------------------------------------------------|
|--3-----------------------3------------------------|
|--1-----------------------3------------------------|
|--------------------------1------------------------|
|
|  E     S  S  S  S  S  S  S  S  S  S  S  S  S  S
|-23b25r27-21-22-20-27-22-20-18-------22-18---------|
|-------------------------------20-18-------21-18---|
|---------------------------------------------------|
|---------------------------------------------------|
|---------------------------------------------------|
|---------------------------------------------------|


   E     E     S  S  S  S  S  S  S  S  S  S  S  S
|-------------------------------------------------|
|-------------------------------------------------|
|-------------------------------------------------|
|--6-----5----------------------------------------|
|--4-----3-----3--3--3--3-----3--3-----3--3--3--3-|
|-------------------------------------------------|
|
|  S  S  S  S  S  S  S  S  S  S  S  S  S  S  S  S
|-19-18-16----------------------------------------|
|----------18-16-------20-------------------------|
|----------------18-17----20-18-16----------19-15-|
|----------------------------------20-18-15-------|
|-------------------------------------------------|
|-------------------------------------------------|


   S  S  S  S  S  S  S  S  S  S  S  S  S  S  S    S
|------------------------------------------------------|
|------------------------------------------------------|
|------------------------------------------------------|
|------------------------------------------------------|
|-----3--3-----3--3--3--3-----3--3-----3--3--3---------|
|------------------------------------------------------|
|
|                                            |---3---|
|  S  S  S  S  S  S  S  S  S  S  S  S  S  S  S  S    S
|------------------------------------------------------|
|------------------------------------------------------|
|-------16-15------------------------------------------|
|-18-15-------18-15----------17------------------------|
|-------------------18-16-15----18-16-15-18-15---------|
|----------------------------------------------18---15-|


   E        E        S    S     S    S     S    S     S    S     S    S     S    S
|-----------------------------------------------------------------------------------------|
|-----------------------------------------------------------------------------------------|
|-----------------------------------------------------------------------------------------|
|--6--------5-----------------------------------------------------------------------------|
|--4--------3--------3----3-----3----3----------3-----3----------3----3-----3-------------|
|-----------------------------------------------------------------------------------------|
|
|  |--3--|  |--3--|  |---3---|  |---3---|  |---3---|  |---3---|  |---3---|  |---3---|
|  S  S  S  S  S  S  S  S    S  S  S    S  S  S    S  S  S    S  S  S    S  S  S    S
|-----------------------------------------------------------------------------15---20b22==|
|-------------------------------------------------------15---16----15---16-18-------------|
|--------------------------------------15---------15-17---------17------------------------|
|------------------------------15-17------15-17-------------------------------------------|
|----------15-17-18-15-17---18------------------------------------------------------------|
|-13-15-18--------------------------------------------------------------------------------|


    H                     H
|-------------------------------------------------||
|-------------------------------------------------||
|-------------------------------------------------||
|---3---------------------3-----------------------||
|---1---------------------3-----------------------||
|-------------------------1-----------------------||
|
|  +E   S  S  S  S  S  S  S  S  S  S  S  S  S  S
|-(20)r18-16----18-16----22-18--------------------||
|------------18-------18-------21-18-19-18--------||
|------------------------------------------19-20--||
|-------------------------------------------------||
|-------------------------------------------------||
|-------------------------------------------------||


 I
       PM-----------------------
   E E S S S S S S S S S S S S
|------------------------------|
|------------------------------|
|------------------------------|
|------------------------------|
|--3-2-------------------------|
|--1-0-0-0-0-0---0-0---0-0-0-0-|
|
|  ~~
|  W
|------------------------------|
|------------------------------|
|-21---------------------------|
|------------------------------|
|------------------------------|
|------------------------------|


 -----------------------------|         PM------------------|
  S S S S S S S S S S S S S S S S   E E S S S S S S S S S S S S
|---------------------------------|------------------------------|
|---------------------------------|------------------------------|
|---------------------------------|------------------------------|
|---------------------------------|------------------------------|
|---------------------------------|-3-2--------------------------|
|---0-0---0-0-0-0---0-0---0-0-0---|-1-0-0-0-0-0---0-0---0-0-0----|
|
| W                                 W
|---------------------------------|------------------------------|
|---------------------------------|------------------------------|
|---------------------------------|------------------------------|
|---------------------------------|------------------------------|
|---------------------------------|------------------------------|
|---------------------------------|------------------------------|


   PM------------------------------------------------------------------|
   |--3--|  |--3--|  |--3--|  |--3--|  |--3--|  |--3--|  |--3--|  |--3--|
   S  S  S  S  S  S  S  S  S  S  S  S  S  S  S  S  S  S  S  S  S  S  S  S
|-------------------------------------------------------------------------|
|-------------------------------------------------------------------------|
|-------------------------------------------------------------------------|
|-------------------------------------------------------------------------|
|-10----------------10----------------10----------------10----------------|
|----12-11-10-11-12----12-11-10-11-12----12-11-10-11-12----12-11-10-11-12-|


      PM----------------------------------------------------|
  E E S S S S S S S S S S S S   S S S S S S S S S S S S S S S S
|-----------------------------|---------------------------------|
|-----------------------------|---------------------------------|
|-----------------------------|---------------------------------|
|-----------------------------|---------------------------------|
|-3-2-------------------------|---------------------------------|
|-1-0-0-0-0-0---0-0---0-0-0-0-|---0-0---0-0-0-0---0-0---0-0-0---|


      PM------------------|
  E E S S S S S S S S S S S S
|------------------------------|
|------------------------------|
|------------------------------|
|------------------------------|
|-3-2--------------------------|
|-1-0-0-0-0-0---0-0---0-0-0----|


   PM------------------------------------------------------------------|
   |--3--|  |--3--|  |--3--|  |--3--|  |--3--|  |--3--|  |--3--|  |--3--|
   S  S  S  S  S  S  S  S  S  S  S  S  S  S  S  S  S  S  S  S  S  S  S  S
|-------------------------------------------------------------------------||
|-------------------------------------------------------------------------||
|-------------------------------------------------------------------------||
|-12----------------12----------------12----------------12----------------||
|----14-13-12-13-14----14-13-12-13-14----14-13-12-13-14----14-13-12-13-14-||
|-------------------------------------------------------------------------||


 J
          ~       ~~~~~~~~~     ~~~
  E E S S Q  E E  E    +E  E E  Q   E E E
|--------------------|--------------------|
|--------------------|--------------------|
|--------------------|--------------------|
|--------------------|--------------------|
|-3-2----------------|--------------------|
|-1-0-3s8-7--0-5-[7]-|-(7)-0-3-[5]--0-2-3-|


          ~       ~~~~~~~~~     PM|
  E E S S Q  E E  E    +E  E Q  E E Q
|--------------------|-----------------|
|--------------------|-----------------|
|--------------------|-----------------|
|--------------------|-------9------9--|
|-3-2----------------|-------7------7--|
|-1-0-3s8-7--0-5-[7]-|-(7)-0----0-0----|


          ~       ~~~~~~~~~     ~~~                 ~
  E E S S Q  E E  E    +E  E E  Q   E E E   E E S S Q  E E E   W
|--------------------|--------------------|------------------|------||
|--------------------|--------------------|------------------|------||
|--------------------|--------------------|------------------|------||
|--------------------|--------------------|------------------|------||
|-3-2----------------|--------------------|-3-2------------9-|------||
|-1-0-3s8-7--0-5-[7]-|-(7)-0-3-[5]--0-2-3-|-1-0-3s8-7--0-5-7-|------||


 K
   E E Q  E E Q      E  E Q  S S S S S S S S
|----------------|---------------------------|
|----------------|---------------------------|
|----------------|---------------------------|
|----------------|---------------------------|
|--4-4----4-4----|---4--4--------------------|
|--2-2----2-2----|---2--2----2s9-9-9-9-9-9-9-|
|
| Gtr III
|  W                +W
|----------------|---------------------------|
|-19-------------|-(19)----------------------|
|-18-------------|-(18)----------------------|
|-16-------------|-(16)----------------------|
|----------------|---------------------------|
|--0-------------|--(0)----------------------|


    E  E Q  E E Q      E  E Q    E   S  S S S S S
|------------------|--------------------------------|
|------------------|--------------------------------|
|------------------|--------------------------------|
|------------------|--------------------------------|
|---4--4----4-4----|---4--4------4------------------|
|---2--2----2-2----|---2--2------2---0--0-0-0-0-0---|
|
|  +W                 +H        +E   Q.
|------------------|--------------------------------|
|-(19)-------------|-(19)------(19)-17--------------|
|-(18)-------------|-(18)------(18)-16--------------|
|-(16)-------------|-(16)------(16)-14--------------|
|------------------|--------------------------------|
|--(0)-------------|--(0)-------(0)--2--------------|


   E     E Q  E E Q      E  E Q  S S S S S S S S
|--------------------|---------------------------|
|--------------------|---------------------------|
|--------------------|---------------------------|
|--------------------|---------------------------|
|--4-----4----4-4----|---4--4--------------------|
|--2-----2----2-2----|---2--2----2s9-9-9-9-9-9-9-|
|
|  W                    +W
|--------------------|---------------------------|
|-17b19==============|=(17)----------------------|
|-16b18==============|=(16)----------------------|
|-14b16==============|=(14)----------------------|
|--------------------|---------------------------|
|--2b4===============|==(2)----------------------|


    E  E Q  E E Q      E  E Q    E   E  S S S S
|------------------|----------------------------|
|------------------|----------------------------|
|------------------|----------------------------|
|------------------|----------------------------|
|---4--4----4-4----|---4--4------4---2----------|
|---2--2----2-2----|---2--2------2---0--3-3-3-3-|
|
|  +W                 +H        +E   Q.
|------------------|----------------------------|
|-(17)-------------|-(17)------(17)-17r---------|
|-(16)-------------|-(16)------(16)-16r---------|
|-(14)-------------|-(14)------(14)-14r---------|
|------------------|----------------------------|
|--(2)-------------|--(2)-------(2)--2r---------|


   E E Q  E E Q      E  E Q  S S S S S S S S
|----------------|---------------------------|
|----------------|---------------------------|
|----------------|---------------------------|
|----------------|---------------------------|
|--4-4----4-4----|---4--4--------------------|
|--2-2----2-2----|---2--2----2s9-9-9-9-9-9-9-|
|
|  W                +W
|----------------|---------------------------|
|-19-------------|-(19)----------------------|
|-18-------------|-(18)----------------------|
|-16-------------|-(16)----------------------|
|----------------|---------------------------|
|--0-------------|--(0)----------------------|


    E  E Q  E E Q      E  E Q    E   S  S S S S S
|------------------|--------------------------------|
|------------------|--------------------------------|
|------------------|--------------------------------|
|------------------|--------------------------------|
|---4--4----4-4----|---4--4------4------------------|
|---2--2----2-2----|---2--2------2---0--0-0-0-0-0---|
|
|  +W                 +H        +E   Q.
|------------------|--------------------------------|
|-(19)-------------|-(19)------(19)-17--------------|
|-(18)-------------|-(18)------(18)-16--------------|
|-(16)-------------|-(16)------(16)-14--------------|
|------------------|--------------------------------|
|--(0)-------------|--(0)-------(0)--2--------------|


   E     E Q  E E Q      E  E Q  S S S S S S S S
|--------------------|---------------------------|
|--------------------|---------------------------|
|--------------------|---------------------------|
|--------------------|---------------------------|
|--4-----4----4-4----|---4--4--------------------|
|--2-----2----2-2----|---2--2----2s9-9-9-9-9-9-9-|
|
|  W                    +W
|--------------------|---------------------------|
|-17b19==============|=(17)----------------------|
|-16b18==============|=(16)----------------------|
|-14b16==============|=(14)----------------------|
|--------------------|---------------------------|
|--2b4===============|==(2)----------------------|


    E  E Q  E E Q      E  E Q    E   E  S S S S
|------------------|----------------------------||
|------------------|----------------------------||
|------------------|----------------------------||
|------------------|----------------------------||
|---4--4----4-4----|---4--4------4---2----------||
|---2--2----2-2----|---2--2------2---0--3-3-3-3-||
|
|  +W                 +H        +E   Q.
|------------------|----------------------------||
|-(17)-------------|-(17)------(17)-17r---------||
|-(16)-------------|-(16)------(16)-16r---------||
|-(14)-------------|-(14)------(14)-14r---------||
|------------------|----------------------------||
|--(2)-------------|--(2)-------(2)--2r---------||


 L
          PM   PM    PM
  E E S S S E. E S S S S
|------------------------|
|------------------------|
|------------------------|
|------------------------|
|-2-2--------------------|
|-0-0-5-3-0-0--0-5-3-0-0-|


      PM    PM                                                 PM   PM    PM
                  |---3---|   |---3---|   |---3---|
  +E  E S S S E.  S   S   S   S   S   S   S   S   S    E E S S S E. E S S S S
|--------------------------------<5>-----------------|------------------------|
|----------------------------<5>-----<5>-------------|------------------------|
|------------------------<5>-------------<5>---------|------------------------|
|--------------------<5>---------------------<5>-----|------------------------|
|----------------<5>-----------------------------<5>-|------------------------|
|-(0)-0-5-3-0-0--------------------------------------|-0-0-5-3-0-0--0-5-3-0-0-|


                                              PM   PM    PM
  +E  S S S S S S S S S S S S S S   +E  E S S S E. E S S S S
|---------------------------------|--------------------------|
|---------------------------------|--------------------------|
|---------------------------------|--------------------------|
|-----------------------5---------|--------------------------|
|-----------4-------------------2-|-(2)-2--------------------|
|-(0)-3h5-6---6-5-3-5-6---6-5-3-0-|-(0)-0-5-3-0-0--0-5-3-0-0-|


      PM    PM
                  |---3---|   |---3---|   |---3---|
  +E  E S S S E.  S   S   S   S   S   S   S   S   S
|--------------------------------<5>------------------|
|----------------------------<5>-----<5>--------------|
|------------------------<5>-------------<5>----------|
|--------------------<5>---------------------<5>------|
|----------------<5>-----------------------------<5>--|
|-(0)-0-5-3-0-0---------------------------------------|


          PM   PM    PM
  E E S S S E. E S S S S   E S S S S S S S S S S S S S S
|------------------------|-------------------------------|
|------------------------|-------------------------------|
|------------------------|-------------------------------|
|------------------------|---------------------5---------|
|------------------------|---------4---------------------|
|-0-0-5-3-0-0--0-5-3-0-0-|-0-3h5-6---6-5-3-5-6---6-5-3-5-|


  PM  PM------|   PM------|   PM|
  S S S S S S S S S S S S S S S S
|---------------------------------||
|---------------------------------||
|---------------------------------||
|---------------5-----------------||
|---4-----------------------4-----||
|-6---6-5-3-5-6---6-5-3-5-6---6-5-||


  W          +W           +W           +W
|----------|------------|------------|--------*|
|----------|------------|------------|--------*|
|----------|------------|------------|--------*|
|----------|------------|------------|--------*|
|-2--------|-(2)--------|-(2)--------|-(2)----*|
|-0--------|-(0)--------|-(0)--------|-(0)----*|



Duration Legend
---------------
W - whole; H - half; Q - quarter; E - 8th; S - 16th; T - 32nd; X - 64th; a - acciaccatura
+ - note tied to previous; . - note dotted; .. - note double dotted
Uncapitalized letters represent notes that are staccato (1/2 duration)
Irregular groupings are notated above the duration line
Duration letters will always appear directly above the note/fret number it represents the
duration for.  Duration letters with no fret number below them represent rests.  Multi-
bar rests are notated in the form Wxn, where n is the number of bars to rest for.  Low
melody durations appear below the staff

Tablature Legend
----------------
 h   - hammer-on
 p   - pull-off
 b   - bend
 pb  - pre-bend
 r   - bend release (if no number after the r, then release immediately)
 /\  - slide into or out of (from/to "nowhere")
 s   - legato slide
 S   - shift slide
 - natural harmonic
[n]  - artificial harmonic
n(n) - tapped harmonic
 ~   - vibrato
 tr  - trill
 T   - tap
 TP  - trem. picking
 PM  - palm muting
\n/  - tremolo bar dip; n = amount to dip
 \n  - tremolo bar down
 n/  - tremolo bar up
/n\  - tremolo bar inverted dip
 =   - hold bend; also acts as connecting device for hammers/pulls
 <> - volume swell (louder/softer)
 x   - on rhythm slash represents muted slash
 o   - on rhythm slash represents single note slash

Misc Legend
-----------
 |  - bar
||  - double bar
||o - repeat start
o|| - repeat end
*|  - double bar (ending)
 :  - bar (freetime)
 $  - Segno
 &  - Coda
Tempo markers -  = BPM(8/16=s8/s16), where s8 = swing 8ths, s16 = swing 16ths


            
            
Suggest correction
Creating personal tab
Creating personal tab
You can edit any tab online and save it as your Personal.

You can edit, replace or remove any tab part or add personal notes – all changes will be seen only by you.

Personal tabs can be accessed anytime from any device, even offline.
Learn more »
Give kudos to tab author, rate the tab!
1 2 3 4 5
comments
print report bad tab
guest
You may want to rate the tab now too:
select rating
Wanna post a correction for this tab? Suggest correction