Oops, an error
Loading. Please wait.

Steady Rain chords

version 2
version 2

Whole song

274 views 15 this week
1 commentread comment
1 2 3 4 5
x 10
add to favorites
×
Save as Personal and add changes to this tab that will be seen only by you. Learn more ›
×
You can save this tab as Personal to edit and correct it or add notes. All changes will be seen only by you. Learn more »
launch autoscroll
font size
0
reset
transpose
0
reset
display chords
guitar tuner
edit
Autoscroll
slow
fast
+/-
esc
set tempo
stop
Strumming
There is no strumming pattern for this song yet. and get +5 IQ
SONG:   STEADY RAIN
ARTIST: WARREN ZEVON
TAB BY: DON CZARSKI
EMAIL:  GUITARZAN7@HOTMAIL.COM


                    STEADY RAIN
                    WARREN ZEVON


INTRO: 

    G                             C
E ---------------3-0-----------------------------------
B -----------0-3-----3-0-------------------------------
G -------0-2--------------2-0-------0------0----0h2-0--
D ----0-2----------------------2------0h2--------------
A --------------------------------3------------3-------
E --3--------------------------------------------------

    G                             C
E ---------------3-0-----------------------------------
B -----------0-3-----3-0-------------------------------
G -------0-2--------------2-0-------0------0----0h2-0--
D ----0-2----------------------2------0h2--------------
A --------------------------------3------------3-------
E --3--------------------------------------------------


VERSE:
 G                           C                  G  C
Silvery teardrops trickling down my windshield
 G                           C             G    C
Silvery teardrops trickling down my windowpane
G            C
  Steady ra-ain 
 Am              G   C
Falls all night and day
 C              G              C
And the vapors ride the wind away


INSTRUMENTAL:
    G                             C
E ---------------3-0-----------------------------------
B -----------0-3-----3-0-------------------------------
G -------0-2--------------2-0-------0------0----0h2-0--
D ----0-2----------------------2------0h2--------------
A --------------------------------3------------3-------
E --3--------------------------------------------------

    G                             C
E ---------------3-0-----------------------------------
B -----------0-3-----3-0-------------------------------
G -------0-2--------------2-0-------0------0----0h2-0--
D ----0-2----------------------2------0h2--------------
A --------------------------------3------------3-------
E --3--------------------------------------------------


VERSE:
G                                      C
  I remember when the thunder hit the rain like a fist
G                               C
  And you kissed me with your face all duly wet 
G                                        C
  Once upon a time I thought it would be easy to forget
G                                       C
  But these misty memories of you are driving me insane girl
G            C
  Steady ra-ain 
 Am              G   C
Falls all night and day
 C              G              C    
And the vapors ride the wind away


E -7-5-3-0---------
B --------3-0------
G ------------2-0--
D -----------------
A -----------------
E -----------------


BREAK:
 Am                               Ab
Shiny tears keep falling falling falling falling
                 Cm                             
falling falling falling falling falling falling
        B
falling 


INSTRUMENTAL: 
Gm   Gb   Bb   D   D

 
    G                             C
E ---------------3-0-----------------------------------
B -----------0-3-----3-0-------------------------------
G -------0-2--------------2-0-------0------0----0h2-0--
D ----0-2----------------------2------0h2--------------
A --------------------------------3------------3-------
E --3--------------------------------------------------

    G                             C
E ---------------3-0-----------------------------------
B -----------0-3-----3-0-------------------------------
G -------0-2--------------2-0-------0------0----0h2-0--
D ----0-2----------------------2------0h2--------------
A --------------------------------3------------3-------
E --3--------------------------------------------------


VERSE/OUTRO:
 G                           C                  G  C
Silvery teardrops trickling down my windshield
 G                 C  G  C
Silvery teardrops 
 G                 C  G  C
Silvery teardrops 
 G                 C  G  C
Silvery teardrops 
 G                 C  G  C
Silvery teardrops 
 G                 C  G  C 
Silvery teardrops           - FADE OUT 

            
            
Suggest correction
Creating personal tab
Creating personal tab
You can edit any tab online and save it as your Personal.

You can edit, replace or remove any tab part or add personal notes – all changes will be seen only by you.

Personal tabs can be accessed anytime from any device, even offline.
Learn more »
comments
print report bad tab
1 comment total.
0 reply
DON CZARSKI [tm] 28,141 Jan 09, 2016 07:51 AM

NOTE:
This was a request by a UG member for the INTRO to the song in standard tuning. I believe this is played and doubled by 2 guitars and would also sound great with a 12 string guitar. I believe what I have sounds great and is the way I play it. However, feel free to improvise or embellish as needed if so desired.

guest
You may want to rate the tab now too:
select rating
Wanna post a correction for this tab? Suggest correction