Oops, an error
Loading. Please wait.

Cimmerian Shadows bass

34 views 1 this week
no commentswrite comment
1 2 3 4 5
3 more votes to show rating
add to favorites
×
Save as Personal and add changes to this tab that will be seen only by you. Learn more ›
×
You can save this tab as Personal to edit and correct it or add notes. All changes will be seen only by you. Learn more »
launch autoscroll
font size
0
reset
guitar tuner
edit
Autoscroll
slow
fast
+/-
esc
set tempo
stop
Band: Watchtower
Album: Energetic Disassembly
Song: Cimmerian Shadows
Tab: Bass
Tabbed by: muberal

Tempo: 165bpm
4/4

Tempos are averages, the song shifts tempos very smoothly.

[Intro]

Guitar intro. Five empty measures.

G|----------------|----------------------------|----------------------------|
D|----------------|----------------------------|----------------------------|
A|----------------|--2--2--2--2--2--2--2--2----|--2--2--2--2--2--2--2--2----|
E|-----------3----|----------------------------|----------------------------|

G|----------------------------|----------------------------|
D|----------------------------|----------------------------|
A|--4--4--4--4--4--4--4--4----|----------------------------|
E|----------------------------|--2--0--2--4--2--0--2--4----|

G|--------------------4-------|----------------------------|
D|-----------4----------------|----------------------------|
A|--2--2-----------2----------|--2-------------------------|
E|--------2-------------------|-----0--0--2--2--4--4--0----|

G|----------------------------|----------------------------|
D|----------------------------|----------------------------|
A|--4--4--4--4--4--4--4--4----|--4-------------------------|
E|----------------------------|-----0--2--4--2--0--2--4----|

                                        Dead notes on 4th fret
G|--------------------------------------x--x--x-------|--2--0----------------------|
D|--------------------4-------------------------------|--------4--2--0-------------|
A|--2-----2-----2-----------------2-------------------|-----------------4--2--0----|
E|----------------------------------------------------|----------------------------|

G|----------------------------|----------------------------|-------|-------|
D|----------------------------|----------------------------|-------|-------|
A|--4--4--4--4--4--4--4--4----|--5-------------------------|--2----|-------|
E|----------------------------|-----0--2--4--2--0--2--4----|-------|-------|

G|----------------------------------------------------|----------------|
D|----------------------------------------------------|----------------|
A|----------------------------------------------------|-----------19\--|
E|--2--2--2-----------2--2--2-------------------------|----------------|

[Verse 1]

G|----------------------------|
D|----------------------------|
A|--2--------3--------0-------|
E|----------------------------| x4

G|----------------------------|
D|----------------------------|
A|--5--------6--------0-------|
E|----------------------------| x4

G|----------------------------|
D|----------------------------|
A|--4--------5--------0-------|
E|----------------------------| x4

G|----------------------------|----------------------------|
D|----------------------------|----------------------------|
A|--2--------3-----0----------|--2--------3-----0--0--0----|
E|----------------------------|----------------------------|

G|----------------------------|----------------------------|
D|----------------------------|----------------------------|
A|--2--2--2--3--2--3--5--3----|--2--2--2--0----------------|
E|----------------------------|--------------3--3--2--2----|

G|----------------------------|
D|----------------------------|
A|--2--------3--------0-------|
E|----------------------------| x4

G|----------------------------|
D|----------------------------|
A|--2--2--2--3--3--3--0--3----|
E|----------------------------| x2

G|----------------------------|----------------------------|
D|----------------------------|----------------------------|
A|--2-----2--3--3--3--0--3----|--2--2--2--3--3--3--0--3----|
E|----------------------------|----------------------------|

G|----------------------------|----------------------------------------------------|
D|----------------------------|----------------------------------------------------|
A|--5--5--5--6--6--3--3--3----|--------5--5--5-----5-----6-----6-----0-------------|
E|----------------------------|----------------------------------------------------|

G|----------------------------------------------------|----------------------------|
D|----------------------------------------------------|----------------------------|
A|--------5--5--5-----6-----6-----6-----3-------------|--5--------6-----0-----0----|
E|----------------------------------------------------|----------------------------|

G|----------------------------------------------------|----------------------------------------------------|
D|----------------------------------------------------|----------------------------------------------------|
A|--------5--5--5-----6-----6-----6-----3-------------|--------5--5--5-----5-----6-----6-----0-------------|
E|----------------------------------------------------|----------------------------------------------------|

G|----------------------------------------------------|----------------------------|
D|----------------------------------------------------|----------------------------|
A|--------5--5--5-----6-----6-----5-----3-------------|--5--5--6--5-----3--0-------|
E|----------------------------------------------------|----------------------------|

[Chorus 1]

Tempo: 172bpm

G|----------------------------|----------------------------|
D|----------------------------|----------------------------|
A|--3--3--3--3--3--3--3-------|-----------------------6----|
E|-----------------------0----|-----0--0--0--0--0--0-------|

G|----------------------------------------------------|----------------------------------------------------|
D|--------------8-----------7-----------6-------------|--5-----------4-----------5-------------------------|
A|--------6--6--------5-----------4-----------3--3----|--------2-----------3-----------4--4--4-----3-------|
E|----------------------------------------------------|----------------------------------------------------|

G|----------------------------|----------------------------|
D|----------------------------|----------------------------|
A|-----3--3--3--3--3--3-------|-----------------------6----|
E|-----------------------0----|--0--0--0--0--0--0--0-------|

G|----------------------------------------------------|----------------------------------------------------|
D|--------------8-----------7-----------6-------------|--5-----------4-----------5-------------------------|
A|--------6--6--------5-----------4-----------3--3----|--------2-----------3-----------4--4--4-----3-------|
E|----------------------------------------------------|----------------------------------------------------|

G|----------------------------|----------------------------|
D|--------5--5--5--5--5-------|-----------------------5----|
A|-----3----------------------|----------------------------|
E|-----------------------0----|-----0--0--0--0--0--0-------|

G|--------------7-----------6-----------5-------------|--4-----------3-----------5-----------6-------------|
D|--------5--5--------4-----------3-----------2-------|--------1-----------2--2--------3--3----------------|
A|----------------------------------------------------|--------------------------------------------3-------|
E|----------------------------------------------------|----------------------------------------------------|

G|----------------------------|----------------------------|
D|----------------------------|----------------------------|
A|-----3--3--3--3--3--3-------|-----------------------6----|
E|-----------------------0----|--0--0--0--0--0--0--0-------|

G|----------------------------------------------------|----------------------------|
D|--------------8-----------7-----------6-------------|--5-----4-------------------|
A|--------6--6--------5-----------4-----------3--3----|-----2-----3--------0-------|
E|----------------------------------------------------|----------------------------|

[Verse 2]

Tempo: 165bpm

G|----------------------------|----------------------------|
D|----------------------------|----------------------------|
A|--2--------3--------0-------|--2--------3----------------|
E|----------------------------|-----------------0--2--3----|

G|----------------------------|----------------------------|
D|----------------------------|----------------------------|
A|-----0--2--3-----2--0-------|----------------------------|
E|-----------------------3----|--0--------0-----0-----0----|

G|----------------------------|
D|----------------------------|
A|--2--------3--------0-------|
E|----------------------------| x2

G|----------------------------|----------------------------|
D|-----------------------0----|--4--2--0-------------------|
A|--2-----------0--2--3-------|-----------3--2--0----------|
E|-----0--2--3----------------|--------------------3--2----|

G|----------------------------|----------------------------|
D|----------------------------|----------------------------|
A|--2--2--2--3--3--3--0--3----|--2-----0--3--0--0--0-------|
E|----------------------------|-----3----------------------|

G|----------------------------|----------------------------|
D|----------------------------|----------------------------|
A|--2--2--2--3--3--3--0--3----|--2--0----------------------|
E|----------------------------|--------3--2-----0----------|

G|----------------------------|----------------------------------------------------|
D|----------------------------|----------------------------------------------------|
A|--5--5--5--6--6--6--3--3----|--------5--5--5-----5-----5-----6-----0-------------|
E|----------------------------|----------------------------------------------------|

G|----------------------------------------------------|----------------------------|
D|----------------------------------------------------|----------------------------|
A|--------5--5--5-----5-----6-----6-----3-----3-------|--5--------6-----0-----0----|
E|----------------------------------------------------|----------------------------|

G|----------------------------------------------------|----------------------------------------------------|
D|----------------------------------------------------|----------------------------------------------------|
A|--------5--5--5-----6-----6-----6-----3-----3-------|--------5--5--5-----5--5--5-----6-----0-------------|
E|----------------------------------------------------|----------------------------------------------------|

G|----------------------------|----------------------------|
D|----------------------------|----------------------------|
A|--5--5--5--6--6--0--3--3----|--5--5--5--6-----3--0-------|
E|----------------------------|----------------------------|

[Chorus 2]

Tempo: 172bpm

G|----------------------------|----------------------------|
D|----------------------------|----------------------------|
A|--3--3--3--3--3--3--3-------|-----------------------6----|
E|-----------------------0----|-----0--0--0--0--0--0-------|

G|----------------------------------------------------|----------------------------------------------------|
D|--------------8-----------7-----------6-------------|--5-----------4-----------5-------------------------|
A|--------6--6--------5-----------4-----------3--3----|--------2-----------3-----------4--4--4-----3-------|
E|----------------------------------------------------|----------------------------------------------------|

G|----------------------------|----------------------------|
D|--------5--5--5--5--5-------|----------------------------|
A|-----3----------------------|-----------------------6----|
E|-----------------------0----|--0--0--0--0--0--0--0-------|

G|----------------------------------------------------|----------------------------------------------------|
D|--------------8-----------7-----------6-------------|--5-----------4-----------5-------------------------|
A|--------6--6--------5-----------4-----------3-------|--------2-----------3-----------4--4--4-----3-------|
E|----------------------------------------------------|----------------------------------------------------|

G|----------------------------|----------------------------|
D|----------------------------|-----------------------5----|
A|-----3--3-----3--2--0-------|----------------------------|
E|-----------------------0----|-----0--0--0--0--0--0-------|

G|--------------7-----------6-----------5-------------|--4-----3-----5-----6-------|
D|--------5--5--------4-----------3-----------2--2----|-----1-----2-----3----------|
A|----------------------------------------------------|-----------------------3----|
E|----------------------------------------------------|----------------------------|

G|----------------------------|----------------------------|
D|----------------------------|----------------------------|
A|-----3--3--3--3--3--3-------|-----------------------6----|
E|-----------------------0----|--0--0--0--0--0--0--0-------|

G|----------------------------------------------------|----------------------------|
D|--------------8-----------7-----------6-------------|--5-----4-------------------|
A|--------6--6--------5-----------4-----------3-------|-----2-----3--------0-------|
E|----------------------------------------------------|----------------------------|

[Bridge 1A]

Tempo: 175bpm

G|--------------------4-------|----------------------------|
D|-----------4----------------|----------------------------|
A|--2--2--2-----2--2----------|--2-------------------------|
E|----------------------------|-----0--0--2--2--4--4--0----|

G|----------------------------|----------------------------|
D|----------------------------|----------------------------|
A|--4--4--4--4--4--4--4--4----|--4-------------------------|
E|----------------------------|-----0--2--4--2--0--2--4----|

G|--------------------4--2----|--0--0--0-----7-----6-----------4-----------2-------|
D|-----------4----------------|----------------------------------------------------|
A|--2--2--2--------2----------|----------------------------------------------------|
E|----------------------------|----------------------------------------------------|

G|----------------------------|----------------------------|
D|----------------------------|----------------------------|
A|--4--4--4--4--4--4--4--4----|--5-------------------------|
E|----------------------------|-----0--2--4--2--0--2--4----|

G|----------------------------|----------------------------|
D|-----------4--------2--0----|----------------------------|
A|--2--2--2--------2----------|--4--2--0-------------------|
E|----------------------------|-----------4-----2-----0----|

G|----------------------------|----------------------------|
D|----------------------------|----------------------------|
A|--4--4--4--4-----4-----4----|--4-------------------------|
E|----------------------------|-----0--2--4--2--0--2--4----|

G|--------------------4-------|----------------------------|
D|-----------4----------------|----------------------------|
A|--2--2--2--------2----------|--2-------------------------|
E|----------------------------|-----0-----2-----4-----0----|

G|----------------------------------------------------|----------------------------|
D|----------------------------------------------------|----------------------------|
A|--4-----4--4--4-----4--4--4-----4-----4-----4-------|--4-------------------------|
E|----------------------------------------------------|-----0--2--4--2--0--2--4----|

[Bridge 1B]

Tempo: 165bpm

G|-------|-------|-------|----------------|
D|--0----|-------|-------|-----------14\--|
A|-------|-------|-------|----------------|
E|-------|-------|-------|----------------|

From now on, triplets:

G|----------------------------------------|----------------------------------------|
D|--0--0--0--0--0--0--0--0--0--0--0--0----|----------------------------------------|
A|----------------------------------------|----------------------------------------|
E|----------------------------------------|--1--1--1--1--1--1--1--1--1--1--1--1----|

G|----------------------------------------|----------------------------------------|
D|----------------------------------------|----------------------------------------|
A|--1--1--1--1--1--1--1--1--1--1--1--1----|--0--0--0--0--0--0--3--3--3--3--3--3----|
E|----------------------------------------|----------------------------------------|

G|----------------------------------------|----------------------------------------|
D|--0--0--0--0--0--0--0--0--0--0--0--0----|----------------------------------------|
A|----------------------------------------|----------------------------------------|
E|----------------------------------------|--1--1--1--1--1--1--1--1--1--1--1--1----|

G|----------------------------------------|----------------------|
D|----------------------------------------|----------------------|
A|--1--1--1--1--1--1--1--1--1--1--1--1----|--0--0--3--0--0--3----|
E|----------------------------------------|----------------------|

G|----------------------------------------|----------------------------------------|
D|--0--0--0--0--0--0--0--0--0--0--0--0----|----------------------------------------|
A|----------------------------------------|----------------------------------------|
E|----------------------------------------|--1--1--1--1--1--1--1--1--1--1--1--1----|

G|----------------------------------------|----------------------------------------|
D|----------------------------------------|----------------------------------------|
A|--1--1--1--1--1--1--1--1--1--1--1--1----|--0--0--0--0--0--0--3--3--3--3--3--3----|
E|----------------------------------------|----------------------------------------|

G|----------------------------------------|----------------------------------------|
D|--0--0--0--0--0--0--0--0--0--0--0--0----|----------------------------------------|
A|----------------------------------------|----------------------------------------|
E|----------------------------------------|--1--1--1--1--1--1--1--1--1--1--1--1----|

G|----------------------------------------|----------------------|
D|----------------------------------------|----------------------|
A|--1--1--1--1--1--1--1--1--1--1--1--1----|--0--0--0--3----------|
E|----------------------------------------|----------------------| Triplets end here.

[Bridge 1C and Guitar Solo]

Tempo: 180bpm

G|----------------|----------------------------|----------------|----------------------------|
D|----------------|--4--2--0-----2--0----------|----------------|--4--2--0-----2--0----------|
A|-----4--5--2----|-----------4--------4-------|-----4--5--2----|-----------4--------4-------|
E|--2-------------|-----------------------2----|----------------|-----------------------2----|

G|----------------|----------------------------|----------------|----------------------------|
D|----------------|--4--2--0-----2--0----------|----------------|--4--2--0-----2--0-----4+---|
A|-----4--5--2----|-----------4--------4-------|-----4--5--2----|-----------4--------4-------|
E|----------------|-----------------------2----|----------------|----------------------------|

G|----------------|----------------------------|----------------|----------------------------|
D|----------------|--4--2--0-----2--0-----4+---|----------------|--4--2--0-----2--0-----4+---|
A|-----4--5--2----|-----------4--------4-------|-----4--5--2----|-----------4--------4-------|
E|----------------|----------------------------|----------------|----------------------------|

G|----------------|----------------------------|----------------|----------------------------|
D|----------------|--4--2--0-----2--0-----4+---|----------------|--4--2--0-----2--0----------|
A|-----4--5--2----|-----------4--------4-------|-----4--5--2----|-----------4--------4--0----|
E|----------------|----------------------------|----------------|----------------------------|

G|----------------|----------------------------|
D|-----------2----|----------------------------|
A|--2--5--4-------|--------------------5-------|
E|----------------|--3--2--0--3--2--0----------| x2

G|----------------|----------------------------|----------------|----------------------------|
D|-----------2----|----------------------------|-----------2----|----------------------------|
A|--2--5--4-------|--------------------5-------|--2--5--4-------|--------------------5-------|
E|----------------|--3--2-----0-----3----------|----------------|--3--2--0--3--2--0----------|

G|----------------------------------------------------|-------------------------------------------------|
D|----------------------------------------------------|-------------------------------------------------|
A|----------------------------------------------------|--------------------------------------2----------|
E|--3--3--2--2--0--0--3--3--2--2--0--0--3--3--2--2----|--0--0--3--3--2--2--0--0--2-----3----------------| x3

G|----------------------------------------------------|-------------------------------------------------|
D|----------------------------------------------------|-------------------------------------------------|
A|----------------------------------------------------|--------------------------------------3----------|
E|--3--3--2--2--0--0--3--3--2--2--0--0--3--3--2--2----|--0--0--3--3--2--2--0--0--2-----3----------------|

[Bridge 1D]

Tempo: 155bpm

G|----------------------------|
D|----------------------------|
A|--2--2--2--2--2--2--2--2----|
E|----------------------------| x4

G|----------------------------|----------------------------|
D|-----------------------4----|--4--4--4--4--4--4----------|
A|--2--2--2--2--2--2--2-------|--------------------2--2----|
E|----------------------------|----------------------------|

G|----------------------------|
D|----------------------------|
A|--2--2--2--2--2--2--2--2----|
E|----------------------------| x2

G|----------------------------|----------------------------|
D|--------------------4--4----|--4--4--4--4-----------5----|
A|--2--2--2--2--2--2----------|--------------2--2--2-------|
E|----------------------------|----------------------------|

G|----------------------------|
D|----------------------------|
A|--2--2--2--2--2--2--2--2----|
E|----------------------------| x2

G|----------------------------|----------------------------|
D|-----------------------4----|-----------------------5----|
A|----------------------------|----------------------------|
E|--3--3--3--3--3--3--3-------|--3--3--3--3--3--3--3-------|

G|----------------------------|----------------------------|
D|----------------------------|----------------------------|
A|----------------------------|----------------------------|
E|--3--3--3--3--3--3--3--3----|--2--2--2--2--2--2--0--0----|

[Verse 3]

Tempo: 165bpm

G|----------------------------|
D|----------------------------|
A|--2--------3--------0-------|
E|----------------------------| x4

G|----------------------------|
D|----------------------------|
A|--5--------6--------0-------|
E|----------------------------| x4

G|----------------------------|
D|----------------------------|
A|--4--------5--------0-------|
E|----------------------------| x4

G|----------------------------|
D|----------------------------|
A|--2--------3-----0--0--0----|
E|----------------------------| x2

  T  R  I  P  L  E  T  S
G|--------4--5----------|--7--5--0-------------------------------------------|
D|--4--5--------5--4----|----------------------------------------------------|
A|----------------------|--------------------------------------5-------------|
E|----------------------|--------------------2-----2-----2-------------------|


G|----------------------------|
D|----------------------------|
A|--2--------3--------0-------|
E|----------------------------| x4

G|--------------------5-----4--4--7-----------5-------|
D|--------------7-----------------------7-------------|
A|--------5-------------------------------------------|
E|--7-------------------------------------------------|

G|-----------5--4--7-----5----|
D|--------7-----------7-------|
A|-----5----------------------|
E|--7-------------------------| x3

G|----------------------------|----------------------------------------------------|
D|----------------------------|----------------------------------------------------|
A|--5--5--5--6--6--6--3--3----|--------5--5--5-----5--5--5-----6-----0-------------|
E|----------------------------|----------------------------------------------------|

G|----------------------------|----------------------------|
D|----------------------------|----------------------------|
A|--5--5--5--6--6--6--3--3----|--5--------6-----0-----0----|
E|----------------------------|----------------------------|

G|----------------------------------------------------|----------------------------------------------------|
D|----------------------------------------------------|----------------------------------------------------|
A|--------5--5--5-----6-----6-----0-----3-----3-------|--------5--5--5-----5-----6-----6-----0-------------|
E|----------------------------------------------------|----------------------------------------------------|

G|----------------------------------------------------|----------------------------|
D|----------------------------------------------------|----------------------------|
A|--5--5--5--5--5-----6-----6-----0-----3-----3-------|--5-----5--5-----3--0-------|
E|----------------------------------------------------|----------------------------|

[Chorus 3]

Tempo: 172bpm

G|----------------------------|----------------------------|
D|----------------------------|----------------------------|
A|--3--3--3--3--3--3--3-------|-----------------------6----|
E|-----------------------0----|-----0--0--0--0--0--0-------|

G|----------------------------------------------------|----------------------------|
D|--------------8-----------7-----------6-------------|--5-----4-----5-----6-------|
A|--------6--6--------5-----------4-----------3-------|-----2-----3-----4-----3----|
E|----------------------------------------------------|----------------------------|

G|----------------------------------------------------|----------------------------|
D|--------------5-----5-----5-----5-----5-------------|----------------------------|
A|--------3--3----------------------------------------|-----------------------6----|
E|-----------------------------------------------0----|-----0--0--0--0--0--0-------|

G|----------------------------------------------------|----------------------------|
D|--------------8-----------7-----------6-------------|--5-----4-----5-----6-------|
A|--------6--6--------5-----------4-----------3-------|-----2-----3-----4-----3----|
E|----------------------------------------------------|----------------------------|

G|--------5--4--2--0--5-------|----------------------------|
D|----------------------------|-----------------------5----|
A|----------------------------|----------------------------|
E|-----------------------0----|-----0--0--0--0--0--0-------|

G|--------------7-----------6-----------5-------------|--4-----3-----5-----6-------|
D|--------5--5--------4-----------3-----------2--2----|-----1-----2-----3----------|
A|----------------------------------------------------|-----------------------3----|
E|----------------------------------------------------|----------------------------|

G|----------------------------|----------------------------|
D|----------------------------|----------------------------|
A|-----3--3--3--3--3--3-------|-----------------------6----|
E|-----------------------0----|-----0--0--0--0--0--0-------|

G|----------------------------------------------------|----------------------------|
D|--------------8-----------7-----------6-------------|--5-------------------------|
A|--------6--6--------5-----------4-----------3-------|-----2--3--4--------0-------|
E|----------------------------------------------------|----------------------------|

[Bridge 2A]

Tempo: 175bpm

G|--------------------4--2----|--0-----0--0--0-------------------------------------|
D|-----------4----------------|----------------------------------------------------|
A|--2-----2-----2--2----------|----------------------------------------------------|
E|----------------------------|--------------------0-----------2-----------4-------|

G|----------------------------|----------------------------|
D|----------------------------|----------------------------|
A|--4--4--4--4--4--4--4--4----|--4-------------------------|
E|----------------------------|-----0--2--4--2--0--2--4----|

G|----------------------------|----------------------------|
D|-----------4--------2--0----|----------------------------|
A|--2--2--2--------2----------|--4--2--0-------------------|
E|----------------------------|-----------4-----2-----0----|

G|----------------------------|----------------------------|
D|----------------------------|----------------------------|
A|--4--4--4--4--4--4--4--4----|--5-------------------------|
E|----------------------------|-----0--2--4--2--0--2--4----|

G|----------------------------|-----9----------------------|
D|-----------4--------11-11---|--9-----12-11-9-------------|
A|--2--2--2-------------------|-----------------12-11-9----|
E|----------------------------|----------------------------|

G|----------------------------|----------------------------|
D|-----------------6--5--0----|--5--4--0--4--3--0--3-------|
A|--4--4--4--4--4-------------|-----------------------x----|
E|----------------------------|----------------------------|

G|--------------------4--2----|--0--7-----6-----4-----2----|
D|-----------4----------------|----------------------------|
A|--2--2--2--------2----------|----------------------------|
E|----------------------------|----------------------------|

G|----------------------------------------------------|----------------------------|
D|----------------------------------------------------|----------------------------|
A|--4-----4--4--4-----4--4--4-----4-----4-----4-------|--4-------------------------|
E|----------------------------------------------------|-----0--2--4--2--0--2--4----|

[Bridge 2B and Bass Solo]

Tempo: 155bpm

G|-------|-------|-------|-------|
D|--0----|-------|-------|-------|
A|-------|-------|-------|-------|
E|-------|-------|-------|-------|

BASS SOLO (Triplets)

Tempo: 167bpm

G|-----------5--7--5----------------------|----------------------------------------|
D|--0--5--7-----------8--7--5-------------|--------------------8--7--5-------------|
A|-----------------------------8--7--5----|--------7--8--6--5-----------8--7--5----|
E|----------------------------------------|--5--6----------------------------------|

G|----------------------------------------|-----------------------------7----------|
D|--------------5--7--8--7--5-------------|-----------5--------7--5-----0----------|
A|-----5--7--8-----------------8--7-------|--5--7--8-----8--5--------5-------------|
E|--8--------------------------------8----|----------------------------------------|

G|-----7--5-------------------------------|----------------------------------------|
D|--0--------8--7--5----------------------|-----------8----------------------------|
A|--------------------8--7--5--0--0--0----|--8--0--0-----7--7----------------------|
E|----------------------------------------|--------------------6--6--6--0--0--0----|

G|--------------------5-------------------|--7--5----------------------------------|
D|--------------5--8-----8--5-----5-------|--------7-----7--7--7--5-----5----------|
A|-----7--8--8-----------------8-----8----|--------------------------7-----7--5----|
E|--8-------------------------------------|----------------------------------------|

[Outro]

(Still triplets)

Tempo: 150bpm

G|----------------------------------------|
D|----------------------------------------|
A|-----------7s----------10s---9s----8s---|
E|--0-----------0-------------------------| x7


G|----------------------------------------|
D|----------------------------------------|
A|----------------------------------------|
E|--0-------------------------------------|

Fin.

************************************

| \   slide down
| +   natural harmonic
| s   slap

************************************

            
            
Suggest correction
Creating personal tab
Creating personal tab
You can edit any tab online and save it as your Personal.

You can edit, replace or remove any tab part or add personal notes – all changes will be seen only by you.

Personal tabs can be accessed anytime from any device, even offline.
Learn more »
Give kudos to tab author, rate the tab!
1 2 3 4 5
comments
print report bad tab
guest
You may want to rate the tab now too:
select rating
Wanna post a correction for this tab? Suggest correction