Oops, an error
Loading. Please wait.

21 Questions chords

version 4
version 4

Whole song

  • Chords are simple and the use of the capo matches ... Show more
  • This version i picked up along with the song. It i... Show more
  • This version sounds different from the original but it is easy to play.
  • This is based off of the studio version (https://w... Show more

Video

412 views 15 this week
no commentswrite comment
1 2 3 4 5
2 more votes to show rating
add to favorites
×
Save as Personal and add changes to this tab that will be seen only by you. Learn more ›
×
You can save this tab as Personal to edit and correct it or add notes. All changes will be seen only by you. Learn more »
launch autoscroll
font size
0
reset
transpose
0
reset
display chords
guitar tuner
edit
Autoscroll
slow
fast
+/-
esc
set tempo
stop
About this tab version
This version sounds different from the original but it is easy to play. Was this info helpful? Yes No
Strumming
There is no strumming pattern for this song yet. and get +5 IQ
   C#m   B    E    A
e|----------------------|
B|----------------------|
G|--6----4----1----2----|
D|--6----4----2----2----|
A|--4----2----2---------|
E|----------------------|

[Intro]
e|------------------------------------------------------------------------|
B|----------------------1-1--1-1--1-----------------------------4---------|
G|-4-4--2---2-----------2-2--2-2--2---4-4--2---2-----------4-4--4---------|
D|-6-6--2---2--1h2p1----2-2--2-2--2---6-6--2---2--1h2p1----4-4--4---------|
A|-6-6---------------2----------------6-6---------------2--2-2--2---------|
E|------------------------------------------------------------------------|

[Verse 1]
                      C#m           A
I wish there was a situation to be mad at
       E
Or a person I could blame
           C#m                           A
I've got a loud mouth, I'm pale with a ghost obsession,
        B
But behind the scenes with her I'm playing 21 Questions
 C#m                 A
There's gotta be a reason
      E
You keep your guy in hiding
         C#m
I'm becoming what I've hated
           A             B
But your talk is so inviting

[Pre-Chorus]
    C#m
But then what?
      A
You drop your guy and take me on
N.C.
It's everything I wanted
    C#m
But then what?
                A
Would you get tired of my time?

[Chorus]
     A                     E
My mood's dictated by our conversations
        B
And if you don't text I get too frustrated
A              E               B     A
I want you all to myself this time
          E              B
Conflicted looks good on me
            C#m      A
I'm trying desperately
               E               B
I want you all to myself this time

[Instrumental]
e|------------------------------------------------------------------------|
B|----------------------1-1--1-1--1-----------------------------4---------|
G|-4-4--2---2-----------2-2--2-2--2---4-4--2---2-----------4-4--4---------|
D|-6-6--2---2--1h2p1----2-2--2-2--2---6-6--2---2--1h2p1----4-4--4---------|
A|-6-6---------------2----------------6-6---------------2--2-2--2---------|
E|------------------------------------------------------------------------|

[Verse 2]
                   C#m
I never have to
                 A
Carefully shape sentences
           E
When I've got some words to say
         C#m                            A
They're falling from my mouth from the time
                   B          C#m
That they hit my brain
                                     A
'Cause we built a picture made for frames
                        E                                B
We live in chemistry away from all the wasted time and taste

[Pre-Chorus]
    C#m
But then what?
      B
You dropped your guy and took me on
N.C.
It's everything I wanted
    C#m
But then what?
                B
Would you get tired of my time?

[Chorus]
     A                     E
My mood's dictated by our conversations
        B
And if you don't text I get too frustrated
A              E               B     A
I want you all to myself this time
          E              B
Conflicted looks good on me
            C#m      A
I'm trying desperately
               E               B
I want you all to myself this time

[Bridge]
C#m                           A
We built a picture made for frames
                       E                                B     
We live in chemistry away from all the wasted time and taste
C#m
And it sucks to sleep
                             A
'Cause you aren't talking to me
N.C.
I wanna give you space
                    E                 B
But the amount between us is wrecking me

[Pre-Chorus 3]
    C#m
But then what?
      A
You dropped your guy and took me on
N.C.
It's everything I wanted
    C#m
But then what?
               A
Would you get tired of my time?
       C#m
'Cause then what?
      A
You dropped your guy and took me on
N.C.
It's everything I wanted
    C#m
But then what?
               A
Would you get tired of my time?
       C#m
'Cause then what?
      B
You dropped your guy and took me on
N.C.
It's everything I wanted
    C#m
But then what?
         B
Am I in his position now?
       C#m
'Cause then what?
      B
You dropped your guy and took me on
N.C.
It's everything I wanted
    C#m
But then what?
               B
Would you get tired of my time?

[Chorus]
A                     E
My mood's dictated by our conversations
        B
And if you don't text I get too frustrated
A              E               B     A
I want you all to myself this time
          E              B
Conflicted looks good on me
            C#m      A
I'm trying desperately
               E               B
I want you all to myself this time

[Outro]
A E B
      I'll forget you if you need me to
A E B 
      Like nothing ever happened
A E B 
      My sun still sets without you
A E B 
      Like nothing ever happened

e|------------------------------------------------------------------------|
B|----------------------1-1--1-1--1---------------------------------------|
G|-4-4--2---2-----------2-2--2-2--2---4-4--2---2-----------4-6--2---------|
D|-6-6--2---2--1h2p1----2-2--2-2--2---6-6--2---2--1h2p1----4-6--2---------|
A|-6-6---------------2----------------6-6---------------2--2-4------------|
E|------------------------------------------------------------------------|


************************************

| h  Hammer-on
| p  Pull-off

************************************

            
            
Suggest correction
Creating personal tab
Creating personal tab
You can edit any tab online and save it as your Personal.

You can edit, replace or remove any tab part or add personal notes – all changes will be seen only by you.

Personal tabs can be accessed anytime from any device, even offline.
Learn more »
Give kudos to tab author, rate the tab!
1 2 3 4 5
comments
print report bad tab
guest
You may want to rate the tab now too:
select rating
Wanna post a correction for this tab? Suggest correction