Oops, an error
Loading. Please wait.

Ill Always Be Around tab

370 views 18 this week
4 commentsread comments
1 2 3 4 5
x 3
add to favorites
×
Save as Personal and add changes to this tab that will be seen only by you. Learn more ›
×
You can save this tab as Personal to edit and correct it or add notes. All changes will be seen only by you. Learn more »
launch autoscroll
font size
0
reset
how to read this tab
guitar tuner
edit
Autoscroll
slow
fast
+/-
esc
set tempo
stop
Author
Difficulty
[Main Riff]
(Synth Transcribed to Guitar)
E|--0--0--0--0--4p0--0----------0-----2h4------|
B|----------------------4h5--0-----0------4h5--|
G|---------------------------------------------|
D|---------------------------------------------|
A|---------------------------------------------|
E|---------------------------------------------|

[Verse]
(Rhythm)
E|--0--0--0--0--0--0--0-----0--0--0--0--0--0--0--|
B|--2--2--2--2--2--2--2-----0--0--0--0--0--0--0--|
G|--2--2--2--2--2--2--2-----1--1--1--1--1--1--1--|
D|--2--2--2--2--2--2--2-----2--2--2--2--2--2--2--|
A|--0--0--0--0--0--0--0-----2--2--2--2--2--2--2--|
E|--------------------------0--0--0--0--0--0--0--|

[Pre-Chorus]
(Rhythm)
E|--2-----4-----4-----5--|
B|--2-----5-----4-----5--|
G|--2-----6-----4--------|
D|--4-----6-----6--------|
A|--4-----4-----6--------|
E|--2-----------4--------|

[Chorus]
(Rhythm)
E|-----------------------------|
B|-----------------------------|
G|--------9--9-----------------|
D|--7-----9--9--9--9--9--9--9--|
A|--7-----7--7--9--9--9--9--9--|
E|--5-----------7--7--7--7--7--|

[Chorus]
(Lead)
E|--4-----4-----4-----4-----2-----2-----2-----2-----|
B|-----5-----5-----5-----5-----5-----5-----5-----5--|
G|--------------------------------------------------|
D|--------------------------------------------------|
A|--------------------------------------------------|
E|--------------------------------------------------|

[Bridge]
E|---------------------------------------------------------------------|-----|
B|---------------------------------------------------------------------|-----|
G|---------------------------------------------------------------------|-----|
D|--11--11--11--11-----9--9--9--9--x--9--9-----7--7--7--7--7--7--7--7--|--9--|
A|--11--11--11--11-----9--9--9--9--x--9--9-----7--7--7--7--7--7--7--7--|--x--|
E|--9---9---9---9------7--7--7--7--x--7--7-----5--5--5--5--5--5--5--5--|--7--|


************************************

| h  Hammer-on
| p  Pull-off
| x  Dead note

************************************

            
            
Suggest correction
Creating personal tab
Creating personal tab
You can edit any tab online and save it as your Personal.

You can edit, replace or remove any tab part or add personal notes – all changes will be seen only by you.

Personal tabs can be accessed anytime from any device, even offline.
Learn more »
Give kudos to tab author, rate the tab!
1 2 3 4 5
comments
print report bad tab
4 comments total. Showing first comments.
0 reply
chio-punk 41 May 22, 2017 09:59 PM

you left out the last part of the bridge

0 reply
Blink182Bouncer 1,151 Nov 09, 2017 12:19 AM

The last part of the bridge was just that last B octave repeated continuously.

0 reply
chio-punk 41 Nov 10, 2017 08:27 PM

No,you miss something between 2:23-2:29 (not 100% accurate but something like:)
E|-----------------------------------------------------------------|
B|---------------------------------------------14--14--17--17------|
G|-----------------------------------------------------------------|
D|--11-11-11-11---12-12-12-12---13-13-13-13------------------------|
A|--x--x--x--x----x--x--x--x----x--x--x--x-------------------------|
E|--9--9--9--9----10-10-10-10---11-11-11-11------------------------|

guest
You may want to rate the tab now too:
select rating
Wanna post a correction for this tab? Suggest correction