Oops, an error
Loading. Please wait.

Sloppy Seconds bass

by Watsky
547 views 9 this week
2 commentsread comments
1 2 3 4 5
1 last vote to show rating
add to favorites
×
Save as Personal and add changes to this tab that will be seen only by you. Learn more ›
×
You can save this tab as Personal to edit and correct it or add notes. All changes will be seen only by you. Learn more »
launch autoscroll
font size
0
reset
guitar tuner
edit
Autoscroll
slow
fast
+/-
esc
set tempo
stop
Author
Difficulty
24 seconds in
verse
G|-------------------------------------|
D|-------------------------------------|
A|-9-9-9-9-12-12-12-12-5-5-5-5-5-5-4-4-|
E|-------------------------------------|
B|-------------------------------------|2x

chorus
G|------------------------------------------------------|
D|------------------------------------------------------|
A|---9--9--9--9--12--12--12--12--5--5--5--5--5--5--5--5-|
E|------------------------------------------------------|
B|-7--7--7--7--10--10--10--10--3--3--3--3--3--3--3--3---|2x

post chorus/verse 2
G|----------------------------------------------------------|
D|----------------------------------------------------------|
A|-5-5-5-5-5-5-5-5-5-5-5-5-5-5-5-5--------------------------|
E|--------------------------------------------------------7-|
B|---------------------------------7--7--7--7--10--10--5----|2x

G|----------------------------------------------------------|
D|----------------------------------------------------------|
A|----------------------------------------------------------|
E|--------------------------------------------------------7-|
B|-3-3-3-3-3-3-3-3-3-3-3-3-3-3-3-3-7--7--7--7--10--10--5----|

G|--------------------------------------------------------|
D|--------------------------------------------------------|
A|--------------------------------------------------------|
E|--------------------------------------------------------|
B|-3-3-3-3-3-3-3-3-3-3-3-3-3-3-3-3-7--7--7--7--5--5--5--5-|

pause

pre chorus at 1:37
G|--------------------------------------|
D|--------------------------------------|
A|-9-9-9-9-12-12-12-12-5-5-5-5-5-5-5-5--|
E|--------------------------------------|
B|--------------------------------------|

G|-----------------------------------------------------------|
D|-----------------------------------------------------------|
A|---9--9---9-9----12--12----12-12---5--5---5-5---5--5---5-5-|
E|-----------------------------------------------------------|
B|-7------7-----10--------10-------3------3-----3------3-----|

G|--------------------------------------------------------|
D|--------------------------------------------------------|
A|---9--9---9-9-------12--12/12---5--5---5-5---5--5---5-5-|
E|--------------------------------------------------------|
B|-7------7-----10-10-----------3------3-----3------3-----|


chorus
G|------------------------------------------------------|
D|------------------------------------------------------|
A|---9--9--9--9--12--12--12--12--5--5--5--5--5--5--5--5-|
E|------------------------------------------------------|
B|-7--7--7--7--10--10--10--10--3--3--3--3--3--3--3--3---|2x

pause

2:38
G|---------------------------------------------------------------------------------|
D|---------------------------------------------------------------------------------|
A|---------------------------------------------------------------------------------|
E|------------------------7--------------------------------------------------------|
B|-7--7--7--7--10--10--5----3-3-3-3-3-3-3-3-3-3-3-3-3-3-3-3-7--7--7--7--5--5--5--5-|

pause

3:08 pre chorus
G|-----------------------------------------------------------|
D|-----------------------------------------------------------|
A|---9--9---9-9----12--12----12-12---5--5---5-5---5--5---5-5-|
E|-----------------------------------------------------------|
B|-7------7-----10--------10-------3------3-----3------3-----|

G|---------------------------------------------------------|
D|---------------------------------------------------------|
A|---9--9---9-9-------12--12--12---5--5---5-5---5--5---5-5-|
E|---------------------------------------------------------|
B|-7------7-----10-10------------3------3-----3------3-----|

end chorus
G|------------------------------------------------------|
D|------------------------------------------------------|
A|---9--9--9--9--12--12--12--12--5--5--5--5--5--5--5--5-|
E|------------------------------------------------------|
B|-7--7--7--7--10--10--10--10--3--3--3--3--3--3--3--3---|

G|------------------------------------------------|
D|--------------------------13-12-----------------|
A|---9--9--9--9--12--12--12---------5--5--5--5--5-|
E|------------------------------------------------|
B|-7--7--7--7--10--10--10---------3--3--3--3--3---|

G|------------------------------------------------------|
D|------------------------------------------------------|
A|---9--9--9--9--12--12--12--12--5--5--5--5--5--5--5--5-|
E|------------------------------------------------------|
B|-7--7--7--7--10--10--10--10--3--3--3--3--3--3--3--3---|

G|------------------------------------------------------|
D|------------------------------------------------------|
A|---9--9--9--9--12--12--12--12--5--5--5--5--5--5--4--4-|
E|------------------------------------------------------|
B|-7--7--7--7--10--10--10--10--3--3--3--3--3--3---------|

            
            
Suggest correction
Creating personal tab
Creating personal tab
You can edit any tab online and save it as your Personal.

You can edit, replace or remove any tab part or add personal notes – all changes will be seen only by you.

Personal tabs can be accessed anytime from any device, even offline.
Learn more »
Give kudos to tab author, rate the tab!
1 2 3 4 5
comments
print report bad tab
2 comments total.
0 reply
hannah123450 10 Aug 18, 2017 12:05 AM, edited on October 16 2017, 03:24 am

ah;

0 reply
just a name 437 Oct 03, 2017 02:56 PM

Why is that?

guest
You may want to rate the tab now too:
select rating
Wanna post a correction for this tab? Suggest correction