Oops, an error
Loading. Please wait.

Summer Song chords

by Wavorly
10,841 views 3 this week
5 commentsread comments
1 2 3 4 5
x 3
add to favorites
×
Save as Personal and add changes to this tab that will be seen only by you. Learn more ›
×
You can save this tab as Personal to edit and correct it or add notes. All changes will be seen only by you. Learn more »
launch autoscroll
font size
0
reset
transpose
0
reset
display chords
guitar tuner
edit
Autoscroll
slow
fast
+/-
esc
set tempo
stop
Strumming
There is no strumming pattern for this song yet. and get +5 IQ
  Summer Song by Wavorly


   F        Am          E          G
e|--------------------------------------------------------------------------|
B|--------------------------------------------------------------------------|
G|------5--5-------5--5------5--5------5--5---------------------------------|
D|-----5--5--5----5--5--5---5--5--5---5--5--5-------------------------------|
A|-------------0------------------------------------------------------------|
D|---3--------------------2---------5---------------------------------------|

VERSE

F          Am          E
Spread the blanket on top
     G                    F
and I'll turn off the lights
            Am            E       G  F
And we'll gaze at the stars
      Am           E
With you by my side 
     G                F
the moon set to the right
         Am       E      G        
its incomparable so far

PRE-CHORUS

C

CHORUS

Am                 G            C   
 I haven't stopped falling in love
Am              G    
Haven't stopped falling

VERSE 

Two years ago 
I had no idea
that you were so perfect
and as we wait so long 
until we join hands
you make the way worth it

CHORUS

VERSE

Now years down the road
still hasn't gotten old 
to sit and laugh the day away
there's one thing you should know
my love for you grows 
even more everyday

CHORUS

BRIDGE    This is the part i struggled with.   It was hard to make it out with everything going on

C
And that day
F            G
I finally can take you home
C                 F          G
there's no way I'm ever ever letting go
C                  F         G
We’ll be ok, though miles may separate
C            F          G
There’s no space between our hearts
C            F           G
And this day, I choose to keep loving you
C                F         G
As if it were a choice, I can’t stop falling…

END CHORUS THINGY

C  Am  G  C  Am  G  F  Am  G   C  Am  

            
            
Suggest correction
Creating personal tab
Creating personal tab
You can edit any tab online and save it as your Personal.

You can edit, replace or remove any tab part or add personal notes – all changes will be seen only by you.

Personal tabs can be accessed anytime from any device, even offline.
Learn more »
Give kudos to tab author, rate the tab!
1 2 3 4 5
comments
print report bad tab
5 comments total. Showing first comments.
0 reply
rocker0719 10 Apr 17, 2009 09:00 PM

e|-------------------------------|
b|----1-1----1-1-----1-1----1-1--|
g|---0-0-0--0-0-0---0-0-0--0-0-0-|
d|-------------------------------|
a|---------0---------------------|
E|--1-------------0------3-------|

that's the intro

0 reply
rokrdude 100 May 06, 2009 06:08 AM

could you figure out the prechorus, like how he plays the notes in the chord

0 reply
lewissh 10 May 18, 2009 12:54 PM

C
e|----0-h1-p0--------|
b|------------31----|
g|----------------0--|
d|-------------------|
a|-------------------|
E|-------------------|

This is the prechorus part.

guest
You may want to rate the tab now too:
select rating
Wanna post a correction for this tab? Suggest correction