Oops, an error
Loading. Please wait.

Majestic solo tab

version 1
version 1

Solo

Whole song

  • Learned by myself and i think it is the most accurate tab yet.

Interactive

15,150 views 45 this week
9 commentsread comments
1 2 3 4 5
x 11
add to favorites
×
Save as Personal and add changes to this tab that will be seen only by you. Learn more ›
×
You can save this tab as Personal to edit and correct it or add notes. All changes will be seen only by you. Learn more »
launch autoscroll
font size
0
reset
how to read this tab
guitar tuner
edit
Autoscroll
slow
fast
+/-
esc
set tempo
stop
---------------------------------------------------------------------------------------------------------------
                                          Artist - Wax Fang
                                         *******************
                                           Song - Majestic
                                          *****************
                                       Album - La La Land (2008)   
                                      ***************************
                                         Tabbed By - Ayreon77
                                        **********************
---------------------------------------------------------------------------------------------------------------
Tuning = Standard


UB = Union Bend


02:48
e|-UB--------------|-------------------------|-UB-----------------------------------|
B|-7---brp---b--rb-|--h----------------------|-7---brp---b--rb---------h-p-s--------|
G|-9---9--7--9--9--|-7-9--------h-p-s--------|-9---9--7--9--9--7-9--7-7-9-7\6-------|
D|-----------------|-----7--5--5-7-5\4-------|--------------------------------7---s-|
A|-----------------|-------------------5---s-|----------------------------------7-\-|
E|-----------------|---------------------5-\-|--------------------------------------|

03:07
e|-UB------------------------------------------------------|
B|-7-------------------------------------------------------|
G|-9--7-----------7---7-9-----s--------h-p-s---------------|
D|-------9--9-7-9---9-----7--7\-5---5-5-7-5\4--------4-----|
A|---------------------------------------------5-------5---|
E|------------------------------------------------5------5-|


e|-UB-UB-UB-UB-UB--------------------------------------------|
B|-7--7--7--7--7-rp--------b-10-rbp-----s------s-----b-r---s-|
G|-9--9--9--9--9---7--9-7--9----9--7-9-9\11--11\12--12---11\-|
D|-----------------------------------------------------------|
A|-----------------------------------------------------------|
E|-----------------------------------------------------------|



ENJOY..........

            
            
Suggest correction
Creating personal tab
Creating personal tab
You can edit any tab online and save it as your Personal.

You can edit, replace or remove any tab part or add personal notes – all changes will be seen only by you.

Personal tabs can be accessed anytime from any device, even offline.
Learn more »
comments
print report bad tab
9 comments total. Showing first comments.
+2 reply
skeltormania 10 Dec 15, 2016 06:07 PM

Many thanks, dude

+2 reply
ayreon77 21,833 Dec 15, 2016 08:01 PM

no prob, glad you liked it

0 reply
skeltormania 10 Dec 16, 2016 11:08 PM

My apologize. I don't knew

guest
You may want to rate the tab now too:
select rating
Wanna post a correction for this tab? Suggest correction