Oops, an error
Loading. Please wait.

Majestic intro tab

version 3
version 3

Intro

  • This version of Wax Fang's song titled "Majestic" ... Show more
  • My version differs from others on the site by incl... Show more

Whole song

  • Learned by myself and i think it is the most accurate tab yet.

Interactive

184 views 1 this week
no commentswrite comment
1 2 3 4 5
2 more votes to show rating
add to favorites
×
Save as Personal and add changes to this tab that will be seen only by you. Learn more ›
×
You can save this tab as Personal to edit and correct it or add notes. All changes will be seen only by you. Learn more »
launch autoscroll
font size
0
reset
how to read this tab
guitar tuner
edit
Autoscroll
slow
fast
+/-
esc
set tempo
stop
Author
Difficulty
About this tab version
This version of Wax Fang's song titled "Majestic" is based off of the album recording. This song is on the Album "La La Land" (https://www.youtube.com/watch?v=4B6E0mijV5A). The notes are played as triplets so there is an even flow throughout the intro. The opening D chord fades in for the first 4 measures until it hits the beginning of the pattern and the volume stays constant. Tabbed by Ryan Hibbison. Was this info helpful? Yes No
[Intro]
  D
E|--5------5------5------5------|
B|----7------7------7------7----|
G|------7------7------7------7--|  x4
D|------------------------------|
A|------------------------------|
E|------------------------------|
  
  D                              G                              A
E|--5------5------5------5------|------------------------------|------------------------------|
B|----7------7------7------7----|--3------3------3------3------|--5------5------5------5------|
G|------7------7------7------7--|----4------4------4------4----|----6------6------6------6----|
D|------------------------------|------5------5------5------5--|------7------7------7------7--|
A|------------------------------|------------------------------|------------------------------|
E|------------------------------|------------------------------|------------------------------|

  D                              D                              G
E|--5------5------5------5------|--5------5------5------5------|------------------------------|
B|----7------7------7------7----|----7------7------7------7----|--3------3------2------2------|
G|------7------7------7------7--|------7------7------7------7--|----4------4------4------4----|
D|------------------------------|------------------------------|------5------5------5------5--|
A|------------------------------|------------------------------|------------------------------|
E|------------------------------|------------------------------|------------------------------|

  A                              D                              Bm
E|------------------------------|--5------5------5------5------|------------------------------|
B|--5------5------5------5------|----7------7------7------7----|------------------------------|
G|----6------6------6------6----|------7------7------7------7--|--7------7------7------7------|
D|------7------7------7------7--|------------------------------|----9------9------9------9----|
A|------------------------------|------------------------------|------9------9------9------9--|
E|------------------------------|------------------------------|------------------------------|
 
 D                              Bm                             A
E|--5------5------5------5------|------------------------------|--------5-----9---------------|
B|----7------7------7------7----|------------------------------|--5-------5-------------------|
G|------7------7------7------7--|--7------7------7------7------|----6-------6-----------------|
D|------------------------------|----9------9------9------9----|------7-----------------------|
A|------------------------------|------9------9------9------9--|------------------------------|
E|------------------------------|------------------------------|------------------------------|

E|--5------5------5------5------|------------------------------|------------------------------|
B|----7------7------7------7----|--3------3------3------3------|--5------5------5------5------|
G|------7------7------7------7--|----4------4------4------4----|----6------6------6------6----|
D|------------------------------|------5------5------5------5--|------7------7------7------7--|
A|------------------------------|------------------------------|------------------------------|
E|------------------------------|------------------------------|------------------------------|

  D                             
E|--5------5------5------5------|
B|----7------7------7------7----|
G|------7------7------7------7--|
D|------------------------------|
A|------------------------------|
E|------------------------------| 

            
            
Suggest correction
Creating personal tab
Creating personal tab
You can edit any tab online and save it as your Personal.

You can edit, replace or remove any tab part or add personal notes – all changes will be seen only by you.

Personal tabs can be accessed anytime from any device, even offline.
Learn more »
Give kudos to tab author, rate the tab!
1 2 3 4 5
comments
print report bad tab
guest
You may want to rate the tab now too:
select rating
Wanna post a correction for this tab? Suggest correction