Oops, an error
Loading. Please wait.

Louisiana Women bass

70 views 6 this week
no commentswrite comment
1 2 3 4 5
3 more votes to show rating
add to favorites
×
Save as Personal and add changes to this tab that will be seen only by you. Learn more ›
×
You can save this tab as Personal to edit and correct it or add notes. All changes will be seen only by you. Learn more »
launch autoscroll
font size
0
reset
guitar tuner
edit
Autoscroll
slow
fast
+/-
esc
set tempo
stop
Author
Difficulty
Tabbed by: 6METAL6BASSIST6
E-mail: petergriffinav@gmail.com

Tuning: EADG

G|----------------------------------------------------------------|
D|7---------------7---------------7---------------7---------------| x2
A|--------7---------------7---------------7---------------7-------|
E|----------------------------------------------------------------|

0:13

G|----------------------------------------------------------------|.
D|7---------------7---------------7---------------7---------------|.
A|--------7---------------7---------------7---------------7-------|.
E|----------------------------------------------------------------|.
                                                                   .
G|----------------------------------------------------------------|.
D|7---------------7---------------7---------------7---------------|.
A|--------7---------------7---------------7-------------------4---|.
E|--------------------------------------------------------7-------|.
                                                                   .
G|----------------------------------------------------------------|.
D|----------------------------------------------------------------|.
A|5---------------5---------------5---------------5---------------|.
E|--------5---------------5---------------5---------------5-------|.
                                                                   . x2
G|----------------------------------------------------------------|.
D|7---------------7---------------7---------------7---------------|.
A|--------7---------------7---------------7---------------4---5---|.
E|----------------------------------------------------------------|.
                                                                   .
G|----------------------------------------------------------------|.
D|--------------------------------5---------------5---------------|.
A|7---------------7-----------------------5---------------5-------|.
E|--------7---------------7---------------------------------------|.
                                                                   .
G|----------------------------------------------------------------|.
D|7---------------7---------------7---------------7---------------|.
A|--------7---------------7---------------7---------------7-------|.
E|----------------------------------------------------------------|.

1:16

G|----------------------------------------------------------------|
D|7---------------7---------------7---------------7---------------|
A|--------7---------------7---------------7---------------7-------|
E|----------------------------------------------------------------|

G|----------------------------------------------------------------|
D|7---------------7---------------7---------------7---------------|
A|--------7---------------7---------------7-------------------4---|
E|--------------------------------------------------------7-------|

G|----------------------------------------------------------------|
D|----------------------------------------------------------------|
A|5---------------5---------------5---------------5---------------|
E|--------5---------------5---------------5---------------5-------|

G|----------------------------------------------------------------|
D|7---------------7---------------7---------------7---------------|
A|--------7---------------7---------------7---------------4---5---|
E|----------------------------------------------------------------|

G|----------------------------------------------------------------|
D|--------------------------------5---------------5---------------|
A|7---------------7-----------------------5---------------5-/-7---|
E|--------7---------------7---------------------------------------|

G|----------------------------------------------------------------|
D|7---------------7---------------7---------------7---------------|
A|--------7---------------7---------------7---------------7-------|
E|----------------------------------------------------------------|

1:47

G|----------------------------------------------------------------|
D|7---------------7---------------7---------------7---------------|
A|--------7---------------7---------------7---------------7-------|
E|----------------------------------------------------------------|

G|----------------------------------------------------------------|
D|7---------------7---------------7---------------7---------------|
A|--------7---------------7---------------7-------------------4---|
E|--------------------------------------------------------7-------|

G|----------------------------------------------------------------|
D|----------------------------------------------------------------|
A|5---------------5---------------5---------------5---------------|
E|--------5---------------5---------------5---------------5-------|

G|----------------------------------------------------------------|
D|7---------------7---------------7---------------7---------------|
A|--------7---------------7---------------7---------------4---5---|
E|----------------------------------------------------------------|

G|----------------------------------------------------------------|
D|--------------------------------5---------------5---------------|
A|7---------------7-----------------------5---------------5-------|
E|--------7---------------7---------------------------------------|

G|----------------------------------------------------------------|
D|7---------------7---------------7---------------7---------------|
A|--------7---------------7---------------7---------------7-------|
E|----------------------------------------------------------------|

2:18

G|----------------------------------------------------------------|.
D|7---------------7---------------7---------------7---------------|.
A|--------7---------------7---------------7---------------7-------|.
E|----------------------------------------------------------------|.
                                                                   .
G|----------------------------------------------------------------|.
D|7---------------7---------------7---------------7---------------|.
A|--------7---------------7---------------7-------------------4---|.
E|--------------------------------------------------------7-------|.
                                                                   .
G|----------------------------------------------------------------|.
D|----------------------------------------------------------------|.
A|5---------------5---------------5---------------5---------------|.
E|--------5---------------5---------------5---------------5-------|.
                                                                   . x2
G|----------------------------------------------------------------|.
D|7---------------7---------------7---------------7---------------|.
A|--------7---------------7---------------7---------------4---5---|.
E|----------------------------------------------------------------|.
                                                                   .
G|----------------------------------------------------------------|.
D|--------------------------------5---------------5---------------|.
A|7---------------7-----------------------5---------------5-/-7---|.
E|--------7---------------7---------------------------------------|.
                                                                   .
G|----------------------------------------------------------------|.
D|7---------------7---------------7---------------7---------------|.
A|--------7---------------7---------------7---------------7-------|.
E|----------------------------------------------------------------|.

3:20 Until fadeout.

G|----------------------------------------------------------------|
D|7---------------7---------------7---------------7---------------|
A|--------7---------------7---------------7---------------7-------|
E|----------------------------------------------------------------|

G|----------------------------------------------------------------|
D|7---------------7---------------7---------------7---------------|
A|--------7---------------7---------------7-------------------4---|
E|--------------------------------------------------------7-------|

G|----------------------------------------------------------------|
D|----------------------------------------------------------------|
A|5---------------5---------------5---------------5---------------|
E|--------5---------------5---------------5---------------5-------|

G|----------------------------------------------------------------|
D|7---------------7---------------7---------------7---------------|
A|--------7---------------7---------------7---------------4---5---|
E|----------------------------------------------------------------|

G|----------------------------------------------------------------|
D|--------------------------------5---------------5-----5---------|
A|7---------------7-----------------------5---------------5-/-7---|
E|--------7---------------7---------------------------------------|

G|----------------------------------------------------------------|
D|7---------------7---------------7---------------7---------------|
A|--------7---------------7---------------7---------------7-------|
E|----------------------------------------------------------------|

            
            
Suggest correction
Creating personal tab
Creating personal tab
You can edit any tab online and save it as your Personal.

You can edit, replace or remove any tab part or add personal notes – all changes will be seen only by you.

Personal tabs can be accessed anytime from any device, even offline.
Learn more »
Give kudos to tab author, rate the tab!
1 2 3 4 5
comments
print report bad tab
guest
You may want to rate the tab now too:
select rating
Wanna post a correction for this tab? Suggest correction