Oops, an error
Loading. Please wait.

Ciudad Central tab

version 1
version 1

Whole song

by WDK
18 views 1 this week
no commentswrite comment
1 2 3 4 5
3 more votes to show rating
add to favorites
×
Save as Personal and add changes to this tab that will be seen only by you. Learn more ›
×
You can save this tab as Personal to edit and correct it or add notes. All changes will be seen only by you. Learn more »
launch autoscroll
font size
0
reset
how to read this tab
guitar tuner
edit
Autoscroll
slow
fast
+/-
esc
set tempo
stop
Yo solo saco los riffs, punteos o como quieran llamarle
despues agreguen los acordes...


Primer RIFF
e |--------------------|---------------------|
B |--------------------|---------------------|
G |--3-3-3-2-----------|---------------------|
D |----------3 ---0-1--|--7-7-7-5---8-8-5-7--|  x2
A |--------------------|---------------------|
E |--------------------|---------------------|
            x3    (*)
(*): la primera vez no se toca (el 1 de D)

Segundo RIFF
e |-------------------------1------------------------------1---1--|
B |--3-3-3-3--------------3---3--------------------------3---3----|
G |----------3-3----3-2-3----------3-3-5/7-3-3-----3-2-3----------|
D |------------------------------------[p]------------------------|
A |---------------------------------------------------------------|
E |---------------------------------------------------------------|

e |--------------------|---------------|
B |--3-3-3-2-----------|---------------|
G |----------3----0-1--|---------------|
D |--------------------|---------------|
A |--------------------|---------------|
E |----------------(*)-|---------------|
           x3

Muy pronto descubrio
temprano desperto
su impulso al placer
la secundaria fue

tenia que girar
hacer su vida bien
y se encontro con que
no era tan asi

en la ciudad central
donde hay puerta a exigir ??????
tuvo que entregar su cuerpo
y su forma de vivir

para en las esquinas
sin lugar donde dormir
su familia piensa
??????????????

Vive dando vueltas
ya nada sorprende
en esta selva de cemento
queres saber lo que llevo por dentro?

Putas de Palermo
????????????????
cuanto me das por un buen momento
queres saber lo que siento por dentro?
mierda, MIERDA, mierda, MIERDA

Es una historia mas
que hay para contar
son cosas que se ven
hoy en cualquier lugar

Tenia que escapar
hacer vida normal
su meta era lograr
un buen futuro en la ciudad central

Donde cuesta exigir ???
tuvo que entregar su cuerpo
y su forma de vivir

suben en los autos
para complacer
muestrale el dinero
ella sabe que hacer

Vive dando vueltas...


cualquier aporte, duda, sugerencia, recomendacion de bandas 
buenas y desconocidas, etc mailen a jdcm182@

            
            
Suggest correction
Creating personal tab
Creating personal tab
You can edit any tab online and save it as your Personal.

You can edit, replace or remove any tab part or add personal notes – all changes will be seen only by you.

Personal tabs can be accessed anytime from any device, even offline.
Learn more »
Give kudos to tab author, rate the tab!
1 2 3 4 5
comments
print report bad tab
guest
Wanna post a correction for this tab? Suggest correction