Oops, an error
Loading. Please wait.

Henry Del 76 tab

by WDK
40 views 1 this week
no commentswrite comment
1 2 3 4 5
3 more votes to show rating
add to favorites
×
Save as Personal and add changes to this tab that will be seen only by you. Learn more ›
×
You can save this tab as Personal to edit and correct it or add notes. All changes will be seen only by you. Learn more »
launch autoscroll
font size
0
reset
how to read this tab
guitar tuner
edit
Autoscroll
slow
fast
+/-
esc
set tempo
stop
                    _  _
        __ __ __ __| || |__
  _     \ V  V // _` || / /       _       _   _  ____  __
 | |_    \_/\_/ \__,_||_\_\    __| | ___ | | ( )|__  |/ /
 | ' \ / -_)| ' \ | '_|| || | / _` |/ -_)| | |/   / // _ \
 |_||_|\___||_||_||_|   \_, | \__,_|\___||_|     /_/ \___/
                        |__/ jdcm182@


           verse                chorus I          chorus II
e |------------------------|----------------|-------------------|
B |------------------------|----------------|-------------------|
G |--10--7-----10------10--|-----10---------|-----10-----8--10--|
D |--10--7--8--10---8--10--|--8--10--8--10--|--8--10--8--8--10--|
A |--8---5--8--8----8--8---|--8--8---8--10--|--8--8---8--6--8---|
E |---------6-------6------|--6------6--8---|--6------6---------|
     |
    (*): en el 2do verse 'estira' (o alarga (o repite)) esta nota (es FA)


       b r i d g e             
      pArt uan (x4)          
e |---------------------|
B |---------------------|
G |--10-----10-----10~--|
D |--10--8--10--8--10~--|
A |--8---8--8---8--8~~--|
E |------6------6-------|
     del 76, del 76


   B r i D G E   *   pArt chu (solo)

e |--8~--6-5-3-1-3/5~--5/6\5---8~--6-5-3-1-3-5-1---8~-8h10p8--8-13--|
B |-----------------------------------------------------------------|
G |-----------------------------------------------------------------|
D |-----------------------------------------------------------------|
A |-----------------------------------------------------------------|
E |-----------------------------------------------------------------|


e |---------------------8----5h6-10-8-13~---.| [S] /----------------\
B |--10-11-10---10-8-6----------------------.| [I] | pero no llegue |
G |-----------------------------------------.| [G] | a sacarlo prke |
D |-----------------------------------------.| [U] | estoy sacando  |
A |-----------------------------------------.| [E] | otros de WDK   |
E |-----------------------------------------.| [.] \----------------/

  [[[ este b r i d g e va con los acordes de verse I & chorus II ]]]


    outro
e |-------------------------------------|
B |-------------------------------------|
G |--x--10-----10-----10-----10-10-10~--|
D |--x--10--8--10--8--10--8--10-10-10~--|
A |--x--8---8--8---8--8---8--8--8--8~~--|
E |--x------6------6------6-------------|
   [[x: hay un acorde en palmmutting pero nose cual es]]


]]]]]]]L]]]]]E]]]]]]]]T]]]]]]]R]]]]]]]A]]]]]]]]]]]]]]]]]


henry en las calles se educo                
sus padres desaparecieron                    
en los años de la represion                    VERSE I
de ellos nunca supo nada mas                 
y nadie puede darle una explicacion         

el solo es otra alma del '76                 CHORUS I
el solo es otra alma del '76                 CHORUS I

su unica abuela se encargo de el            
pero nadie vive por siempre                  
y un dia ya no desperto                        VERSE II
el no tuvo otra opcion para elegir           
henry no tuvo otra opcion mas que seguir    

y solo es otra alma del '76                 
el solo es otra alma del '76, del'76         CHORUS II
del'76, del'76('76), del'76, del '76        

     !!!aca va el bridge!!!

('FUERZA GENTE!!!')                          OUTRO


]]]]]]]]]]]]]]]]]]]]]]]]]]]]]]]]]]]]]]]]]]]]]]]]]]]]]]]]
]]                                                    ]]
]]               jdcm182@                  ]]
]]                                                    ]]
]]]]]]]]]]]]]]]]]]]]]]]]]]]]]]]]]]]]]]]]]]]]]]]]]]]]]]]]

:::estos son los tabs que subi hasta ahora:::

   - CADENA PERPETUA - SIGO ACA
   - WDK - CIUDAD CENTRAL
   - WDK - QUE NECESITAS?
   - EL OTRO YO - INMADURO
   - SMITTEN - INTENTO
   - WDK - SENSACION PURA
   - WDK - PASAPORTE
   - WDK - HENRY DEL '76
   - WDK - VOY COLGADO

:::::::::::::::::::::::::::::::::::::::::::::

            
            
Suggest correction
Creating personal tab
Creating personal tab
You can edit any tab online and save it as your Personal.

You can edit, replace or remove any tab part or add personal notes – all changes will be seen only by you.

Personal tabs can be accessed anytime from any device, even offline.
Learn more »
Give kudos to tab author, rate the tab!
1 2 3 4 5
comments
print report bad tab
guest
Wanna post a correction for this tab? Suggest correction