Oops, an error
Loading. Please wait.

Ready For The Fall tab

version 1
version 1

Whole song

6,155 views 1 this week
1 commentread comment
1 2 3 4 5
x 4
add to favorites
×
Save as Personal and add changes to this tab that will be seen only by you. Learn more ›
×
You can save this tab as Personal to edit and correct it or add notes. All changes will be seen only by you. Learn more »
launch autoscroll
font size
0
reset
how to read this tab
guitar tuner
edit
Autoscroll
slow
fast
+/-
esc
set tempo
stop
Author
Difficulty
-------------------------------------------------------------------------------
                          Ready For The Fall - We Are The Ocean
-------------------------------------------------------------------------------
Tabbed by: Alex
Email: alex_g_12@hotmail.com

Tuning: Standard
(intro)
e|-------------------------------------------------------------------------------|
B|---5---------------------------------------------------------------------------|
G|------4--5---------------------------------------------------------------------|
D|------------7--5---------------------------------------------------------------|
A|-------------------------------------------------------------------------------|
E|-------------------------------------------------------------------------------|
Riff (repeat many times)
e|------------------------------------------------------------------------------------|
B|------------------------------------------------------------------------------------|
G|----7-h-9-h-7-----------------------------------------------------------------------|
D|---------------9-----10--9-10--9----------------------------------------------------|
A|------------------------------------------------------------------------------------|
E|------------------------------------------------------------------------------------|
Verse (repeat many times)
e|----------------------------------------------------------------------------------|
B|----------------------------------------------------------------------------------|
G|-------9-------9------------------------------------------------------------------|
D|-------x-------x------------------------------------------------------------------|
A|----7--7---7-7-7------------------------------------------------------------------|
E|----------------------------------------------------------------------------------|
             . .

Chorus (lead) (very fast)
e|-------------------------------------------------------------------------------------|
B|-------------------------------------------------------------------------------------|
G|-----7-9-7-4-5-4-5-4-----------------------------------------------------------------|
D|-------------------------------------------------------------------------------------|
A|-------------------------------------------------------------------------------------|
E|-------------------------------------------------------------------------------------|

e|-------------------------------------------------------------------------------|
B|-------------------------------------------------------------------------------|
G|----9------5-------------------------------------------------------------------|
D|----9------5-------------------------------------------------------------------|
A|----7------3-------------------------------------------------------------------|
E|-------------------------------------------------------------------------------|


| /  slide up
| \  slide down
| h  hammer-on
| p  pull-off
| ~  vibrato
| +  harmonic
| x  Mute note
===============================================================================

            
            
Suggest correction
Creating personal tab
Creating personal tab
You can edit any tab online and save it as your Personal.

You can edit, replace or remove any tab part or add personal notes – all changes will be seen only by you.

Personal tabs can be accessed anytime from any device, even offline.
Learn more »
comments
print report bad tab
1 comment total.
0 reply
letthisgo 97 Jan 11, 2009 01:29 AM

Chorus is wrong. I think it goes something like this:

Chorus:
Guitar 1

e|--------------------------|
B|--------------------------|
G|-12-----------------------|
D|----10-12-14-12-10-10-10--|
A|--------------------------|
E|--------------------------| (played very fast of course)

Good attempt mate, it's quite hard to tab the verse bit as it's difficult to hear. Intro and first riff are spot on though.

guest
You may want to rate the tab now too:
select rating
Wanna post a correction for this tab? Suggest correction