Oops, an error
Loading. Please wait.

Let Me Drown tab

58 views 6 this week
no commentswrite comment
1 2 3 4 5
1 last vote to show rating
add to favorites
×
Save as Personal and add changes to this tab that will be seen only by you. Learn more ›
×
You can save this tab as Personal to edit and correct it or add notes. All changes will be seen only by you. Learn more »
launch autoscroll
font size
0
reset
how to read this tab
guitar tuner
edit
Autoscroll
slow
fast
+/-
esc
set tempo
stop
About this tab version
Currently rhythm guitar only. Lead guitar coming soon. Was this info helpful? Yes No
This awesome song can be played in Drop D, but Drop C is easier to play.
To play in Drop D, reduce every number by two, and
change the G5(x022xx) to (555xxx)
              CGCFAD      DADGBE

There is no lead guitar in this tab currently. I might add it once I get it tabbed out.

[Verse 1]
D|---------------------------------------------------------------------------|
A|---------------------------------------------------------------------------|
F|-2-2-2-2-2-2-2-2-----------------5-5-5-5-5-5-5-5---------------------------|
C|-2-2-2-2-2-2-2-2-3-3-3-3-3-3-3-3-5-5-5-5-5-5-5-5-5-5-5-5-5-5-5-5-----------|
G|-0-0-0-0-0-0-0-0-3-3-3-3-3-3-3-3-3-3-3-3-3-3-3-3-5-5-5-5-5-5-5-5-----------|
C|-----------------3-3-3-3-3-3-3-3-----------------5-5-5-5-5-5-5-5-----------|

D|-----------------------------------------------------------------------------|
A|-----------------------------------------------------------------------------|
F|-2-2-2-2-2-2-2-2-------------------------------------------------------------|
C|-2-2-2-2-2-2-2-2-3-3-3-3-3-3-3-3-2-2-2-2-2-2-2-2-5-----5-----5-----5~--------|
G|-0-0-0-0-0-0-0-0-3-3-3-3-3-3-3-3-2-2-2-2-2-2-2-2-5-x-x-5-x-x-5-x-x-5~----5-5-|
C|-----------------3-3-3-3-3-3-3-3-2-2-2-2-2-2-2-2-5-x-x-5-x-x-5-x-x-5~----5-5-|
PM                                  [-------------] [---] [---] [---]     [---]

[Chorus 1]
D|---------------------------------------------------------------------------|
A|---------------------------------------------------------------------------|
F|-----------------2-2-2-2-2-2-2-2-5-5-5-5-5-5-5-5---------------------------|
C|-3-3-3-3-3-3-3-3-2-2-2-2-2-2-2-2-5-5-5-5-5-5-5-5-5-5-5-5-5-5-5-5-----------|
G|-3-3-3-3-3-3-3-3-0-0-0-0-0-0-0-0-3-3-3-3-3-3-3-3-5-5-5-5-5-5-5-5-----------|
C|-3-3-3-3-3-3-3-3---------------------------------5-5-5-5-5-5-5-5-----------|

D|---------------------------------------------------------------------------|
A|---------------------------------------------------------------------------|
F|-----------------2-2-2-2-2-2-2-2-5-5-5-5-5-5-5-5---------------------------|
C|-3-3-3-3-3-3-3-3-2-2-2-2-2-2-2-2-5-5-5-5-5-5-5-5-2-2-2-2-2-2-2-2-----------|
G|-3-3-3-3-3-3-3-3-0-0-0-0-0-0-0-0-3-3-3-3-3-3-3-3-2-2-2-2-2-2-2-2-----------|
C|-3-3-3-3-3-3-3-3---------------------------------2-2-2-2-2-2-2-2-----------|

D|---------------------------------------------------------------------------|
A|---------------------------------------------------------------------------|
F|---------------------------------------------------------------------------|
C|-3-----3-----3-----3-----3-----3-----5-----5-----5-----5~------------------|
G|-3-x-x-3-x-x-3-x-x-3-x-x-3-x-x-3-x-x-5-x-x-5-x-x-5-x-x-5~------------------|
C|-3-x-x-3-x-x-3-x-x-3-x-x-3-x-x-3-x-x-5-x-x-5-x-x-5-x-x-5~------------------|

[Post-Chorus]
D|-----------------|
A|-----------------|
F|-2-2-2-2-2-2-2-2-|
C|-2-2-2-2-2-2-2-2-| (x4)
G|-0-0-0-0-0-0-0-0-|
C|-----------------|

[Verse 2]
D|---------------------------------------------------------------------------|
A|---------------------------------------------------------------------------|
F|-2-2-2-2-2-2-2-2-----------------5-5-5-5-5-5-5-5---------------------------|
C|-2-2-2-2-2-2-2-2-3-3-3-3-3-3-3-3-5-5-5-5-5-5-5-5-5-5-5-5-5-5-5-5-----------| (x3)
G|-0-0-0-0-0-0-0-0-3-3-3-3-3-3-3-3-3-3-3-3-3-3-3-3-5-5-5-5-5-5-5-5-----------|
C|-----------------3-3-3-3-3-3-3-3-----------------5-5-5-5-5-5-5-5-----------|

D|-----------------------------------------------------------------------|
A|-----------------------------------------------------------------------|
F|-2-2-2-2-2-2-2-2-------------------------------------------------------|
C|-2-2-2-2-2-2-2-2-3-3-3-3-3-3-3-3-2-2-2-2-2-2-2-2-5-----5-----5-----5~--|
G|-0-0-0-0-0-0-0-0-3-3-3-3-3-3-3-3-2-2-2-2-2-2-2-2-5-x-x-5-x-x-5-x-x-5~--|
C|-----------------3-3-3-3-3-3-3-3-2-2-2-2-2-2-2-2-5-x-x-5-x-x-5-x-x-5~--|
PM                                  [-------------] [---] [---] [---]    

[Chorus 2]
D|---------------------------------------------------------------------------|
A|---------------------------------------------------------------------------|
F|-----------------2-2-2-2-2-2-2-2-5-5-5-5-5-5-5-5---------------------------|
C|-3-3-3-3-3-3-3-3-2-2-2-2-2-2-2-2-5-5-5-5-5-5-5-5-5-5-5-5-5-5-5-5-----------|
G|-3-3-3-3-3-3-3-3-0-0-0-0-0-0-0-0-3-3-3-3-3-3-3-3-5-5-5-5-5-5-5-5-----------|
C|-3-3-3-3-3-3-3-3---------------------------------5-5-5-5-5-5-5-5-----------|

D|---------------------------------------------------------------------------|
A|---------------------------------------------------------------------------|
F|-----------------2-2-2-2-2-2-2-2-5-5-5-5-5-5-5-5---------------------------|
C|-3-3-3-3-3-3-3-3-2-2-2-2-2-2-2-2-5-5-5-5-5-5-5-5-2-2-2-2-2-2-2-2-----------|
G|-3-3-3-3-3-3-3-3-0-0-0-0-0-0-0-0-3-3-3-3-3-3-3-3-2-2-2-2-2-2-2-2-----------|
C|-3-3-3-3-3-3-3-3---------------------------------2-2-2-2-2-2-2-2-----------|

D|---------------------------------------------------------------------------|
A|---------------------------------------------------------------------------|
F|---------------------------------------------------------------------------|
C|-3-----3-----3-----3-----3-----3-----5-----5-----5-----5-----5-----5-------|
G|-3-x-x-3-x-x-3-x-x-3-x-x-3-x-x-3-x-x-5-x-x-5-x-x-5-x-x-5-x-x-5-x-x-5-------|
C|-3-x-x-3-x-x-3-x-x-3-x-x-3-x-x-3-x-x-5-x-x-5-x-x-5-x-x-5-x-x-5-x-x-5-------|

[Bridge]
D|---------------------------------------------------------------------------|
A|---------------------------------------------------------------------------|
F|-7-7-7-7-7-7-7-7-5-5-5-5-5-5-5-5-------------------------------------------|
C|-7-7-7-7-7-7-7-7-5-5-5-5-5-5-5-5-5-5-5-5-5-5-5-5-5-5-5-5-5-5-5-5-----------|
G|-5-5-5-5-5-5-5-5-3-3-3-3-3-3-3-3-5-5-5-5-5-5-5-5-5-5-5-5-5-5-5-5-----------|
C|---------------------------------5-5-5-5-5-5-5-5-5-5-5-5-5-5-5-5-----------|

D|---------------------------------------------------------------------------|
A|---------------------------------------------------------------------------|
F|-7-7-7-7-7-7-7-7-2-2-2-2-2-2-2-2-------------------------------------------|
C|-7-7-7-7-7-7-7-7-2-2-2-2-2-2-2-2-5-5-5-5-5-5-5-5-5-5-5-5-5-5-5-5-----------|
G|-5-5-5-5-5-5-5-5-0-0-0-0-0-0-0-0-5-5-5-5-5-5-5-5-5-5-5-5-5-5-5-5-----------|
C|---------------------------------5-5-5-5-5-5-5-5-5-5-5-5-5-5-5-5-----------|

D|---------------------------------------------------------------------------|
A|---------------------------------------------------------------------------|
F|-7-7-7-7-7-7-7-7-5-5-5-5-5-5-5-5-2-2-2-2-2-2-2-2---------------------------|
C|-7-7-7-7-7-7-7-7-5-5-5-5-5-5-5-5-2-2-2-2-2-2-2-2-2-2-2-2-2-2-2-2-----------|
G|-5-5-5-5-5-5-5-5-3-3-3-3-3-3-3-3-0-0-0-0-0-0-0-0-2-2-2-2-2-2-2-2-----------|
C|-------------------------------------------------2-2-2-2-2-2-2-2-----------|

D|-------------|
A|-------------|
F|-------------|
C|-3--3--3--3~-|
G|-3--3--3--3~-|
C|-3--3--3--3~-|

[Chorus 3] 
(Begins with piano. Guitar comes in playing this.)
D|---------------------------------------------------------------------------|
A|---------------------------------------------------------------------------|
F|---------------------------------------------------------------------------|
C|-3-3-3-3-3-3-3-3-5-5-5-5-5-5-5-5-------------------------------------------|
G|-3-3-3-3-3-3-3-3-5-5-5-5-5-5-5-5-------------------------------------------|
C|-3-3-3-3-3-3-3-3-5-5-5-5-5-5-5-5-------------------------------------------|
PM  [-------------]  [-----------]

D|---------------------------------------------------------------------------|
A|---------------------------------------------------------------------------|
F|-----------------2-2-2-2-2-2-2-2-5-5-5-5-5-5-5-5---------------------------|
C|-3-3-3-3-3-3-3-3-2-2-2-2-2-2-2-2-5-5-5-5-5-5-5-5-5-5-5-5-5-5-5-5-----------|
G|-3-3-3-3-3-3-3-3-0-0-0-0-0-0-0-0-3-3-3-3-3-3-3-3-5-5-5-5-5-5-5-5-----------|
C|-3-3-3-3-3-3-3-3---------------------------------5-5-5-5-5-5-5-5-----------|

D|---------------------------------------------------------------------------|
A|---------------------------------------------------------------------------|
F|-----------------2-2-2-2-2-2-2-2-5-5-5-5-5-5-5-5---------------------------|
C|-3-3-3-3-3-3-3-3-2-2-2-2-2-2-2-2-5-5-5-5-5-5-5-5-2-2-2-2-2-2-2-2-----------|
G|-3-3-3-3-3-3-3-3-0-0-0-0-0-0-0-0-3-3-3-3-3-3-3-3-2-2-2-2-2-2-2-2-----------|
C|-3-3-3-3-3-3-3-3---------------------------------2-2-2-2-2-2-2-2-----------|

D|---------------------------------------------------------------------------|
A|---------------------------------------------------------------------------|
F|---------------------------------------------------------------------------|
C|-3-----3-----3-----3-----3-----3-----5-----5-----5-----5-----5-----5-------|
G|-3-x-x-3-x-x-3-x-x-3-x-x-3-x-x-3-x-x-5-x-x-5-x-x-5-x-x-5-x-x-5-x-x-5-------|
C|-3-x-x-3-x-x-3-x-x-3-x-x-3-x-x-3-x-x-5-x-x-5-x-x-5-x-x-5-x-x-5-x-x-5-------|

D|---------------------------------------------------------------------------|
A|---------------------------------------------------------------------------|
F|---------------------------------------------------------------------------|
C|-3-----3-----3-----3-----3-----3-----5-----5-----5-----5~------------------|
G|-3-x-x-3-x-x-3-x-x-3-x-x-3-x-x-3-x-x-5-x-x-5-x-x-5-x-x-5~------------------|
C|-3-x-x-3-x-x-3-x-x-3-x-x-3-x-x-3-x-x-5-x-x-5-x-x-5-x-x-5~------------------|

(Second guitar does some alternate strumming quietly and fades out,
while the rythym guitar just lets this note ring.)

D|----|
A|----|
F|-2~-|
C|-2~-|
G|-0~-|
C|----|


************************************

| x   Dead note
| ~   Vibrato
| PM  Palm mute

************************************

            
            
Suggest correction
Creating personal tab
Creating personal tab
You can edit any tab online and save it as your Personal.

You can edit, replace or remove any tab part or add personal notes – all changes will be seen only by you.

Personal tabs can be accessed anytime from any device, even offline.
Learn more »
Give kudos to tab author, rate the tab!
1 2 3 4 5
comments
print report bad tab
guest
You may want to rate the tab now too:
select rating
Wanna post a correction for this tab? Suggest correction