Oops, an error
Loading. Please wait.

Heaven Can Wait tab

version 6
version 6

Interactive

Video

9,629 views 1 this week
3 commentsread comments
1 2 3 4 5
1 last vote to show rating
add to favorites
×
Save as Personal and add changes to this tab that will be seen only by you. Learn more ›
×
You can save this tab as Personal to edit and correct it or add notes. All changes will be seen only by you. Learn more »
launch autoscroll
font size
0
reset
how to read this tab
guitar tuner
edit
Autoscroll
slow
fast
+/-
esc
set tempo
stop
Song: Heaven Can Wait
Artist: We the Kings
Album: Smile Kid
Tabber: Mark Daniel Cerezo
Email Add: standupon_09@yahoo.com

        Hi there! This is the tab for heaven can wait acoustic version of we the kings in their
smile kid. I hope you guys like it and I think it is 99.9% accurate. I hope you find it
same way too. Please don’t forget to leave some comments, suggestions, or any 
And specially don’t forget to rate the tab. Let us not be shy to share our God-given
Godbless! (//_n)

Tuning: Standard
Capo on 5th fret
All chords and patterns are related to the capo...

Chord Diagram:

    F         G           Em         Am         C
e---x---   e---x---   e---0---   e---0---   e---0---|
B---x---   B---3---   B---0---   B---1---   B---1---|
G---2---   G---0---   G---0---   G---2---   G---0---|
D---3---   D---0---   D---2---   D---2---   D---2---|
A---3---   A---x---   A---2---   A---0---   A---3---|
E---1---   E---3---   E---0---   E---x---   E---x---|

Intro:

Guitar 1:

e-------------0------------0---0-1-----------|
B---1---1--3------3--1-----1---1-1---3---3---|
G-----0----------------0-----0-------0-0-0-0-|
D--------------------------------------------|
A--------------------------------------------|
E--------------------------------------------|

Guitar 2:

e----------------------------------------|
B---1---1---1---1---1---1---3--0---0-----|
G-----0---0---0---0---0----------0---0---|
D----------------------------------------|
A----------------------------------------|
E----------------------------------------|


Guitar 1:

e---3----0-1-3-1--0---0-1-3-1-0---3----0-1-3-1-0----1-0-------|
B------1------------3---------------1-------------3-----3-1---|
G-------------------------------------------------------------|
D-------------------------------------------------------------|
A-------------------------------------------------------------|
E-------------------------------------------------------------|

Guitar 2: (play these chords)

C-G-Am7-G

The pattern is shown below

       C          Am7        G
e---3---   e---3---   e---3---|
B---1---   B---1---   B---3---|
G---0---   G---0---   G---0---|
D---2--    D---2---   D---0---|
A---3--    A---0---   A---2---|
E---x---   E---x---   E---3---|


Verse 1: (for the chords of the verse refer to the first chord diagram given)

Guitar 1:

F         G           Em
Here's a song for the nights
   Am        G
I think too much and
F         G         Em            Am  G
Here's a song when imagine us together
F         G                Em       Am
Here's a song for when we talk too much
    G     F      G
And I forget my words

Guitar 2: (this is at the part Here's a song for when we talk too much)

e-------------------------------------------------------------------------------------|
B-------------------------------------------------------------------------------------|
G---2---2---2---2---4---4---4---4---0---0---0---0---5---5---4---4---2---2---2---2---4-|
D-------------------------------------------------------------------------------------|
A-------------------------------------------------------------------------------------|
E-----1---1---1---1---3---3---3---3---0---0---0---0---5---5---3---3---1---1---1---1---|

Or

e-------------------------------------------------------------------------------------|
B-------------------------------------------------------------------------------------|
G---2---2---2---2---4---4---4---4---0---0---0---0---5---5---4---4---2---2---2---2---4-|
D-----3---3---3---3---5---5---5---5---2---2---2---2---5---5---5---5---3---3---3---3---|
A-------------------------------------------------------------------------------------|
E-------------------------------------------------------------------------------------|

Chorus:

Guitar 1:
            C                  Am
Heaven can wait up high in the sky
      F      G
It's you and I
            C                      Am
Heaven can wait deep down in your eyes
      F      G
I'm yours tonight
           C            Am
Lay your heart next to mine
   Em       F
I feel so alive
             C          Am      F
Tell me you want me to stay, forever
         G
'Cause heaven can wait


Guitar 2:

e-------------0-------------------------------|
B---1----1--3----3--1-----1---1-3--0---0------|
G-----0----------------0----0--------0---0----| x2
D---------------------------------------------|
A---------------------------------------------|
E---------------------------------------------|

-------------0-------------------------------|
---1----1--3----3--1-----0---0----1---1------|
-----0----------------0----0---0-----0---0---|
---------------------------------------------|
---------------------------------------------|
---------------------------------------------|

-------------0-----------------------|
---1----1--3----3--1-----1---1---0---|
-----0----------------0----0---0-----|
-------------------------------------|
-------------------------------------|
-------------------------------------|


Verse 2:

Guitar 1:

F         G           Em       Am       G
Here's a song for the one who stole my heart
F           G         Em              Am   G
And ran so far, that cupid couldn't catch her
F         G           Em       Am      G
Here's a song for the kid who aims so high
F            G
He shot her down

Guitar 2:

e--------------------------------------------------------------------------------------|
B--------------------------------------------------------------------------------------|
G---2---2---2---2---4---4---4---4---0---0---0---0---5---5---4---4---2---2---2---2------|
D--------------------------------------------------------------------------------------|x3
A--------------------------------------------------------------------------------------|
E-----1---1---1---1---3---3---3---3---0---0---0---0---5---5---3---3---1---1---1---1----|

-------------------------------------------------------------------------------------|
-------------------------------------------------------------------------------------|
---2---2---2---2---4---4---4---4---0---0---0---0---5---5---4---4---2---2---2---2---4-|
-------------------------------------------------------------------------------------|
-------------------------------------------------------------------------------------|
-----1---1---1---1---3---3---3---3---0---0---0---0---5---5---3---3---1---1---1---1---|

Or

e--------------------------------------------------------------------------------------|
B--------------------------------------------------------------------------------------|
G---2---2---2---2---4---4---4---4---0---0---0---0---5---5---4---4---2---2---2---2------|x3
D-----3---3---3---3---5---5---5---5---2---2---2---2---5---5---5---5---3---3---3---3----|
A--------------------------------------------------------------------------------------|
E--------------------------------------------------------------------------------------|

-------------------------------------------------------------------------------------|
-------------------------------------------------------------------------------------|
---2---2---2---2---4---4---4---4---0---0---0---0---5---5---4---4---2---2---2---2---4-|
-----3---3---3---3---5---5---5---5---2---2---2---2---5---5---5---5---3---3---3---3---|
-------------------------------------------------------------------------------------|
-------------------------------------------------------------------------------------|


Chorus:

Guitar 1:
            C                  Am
Heaven can wait up high in the sky
      F      G
It's you and I
            C                      Am
Heaven can wait deep down in your eyes
      F      G
I'm yours tonight
           C            Am
Lay your heart next to mine
   Em       F
I feel so alive
             C          Am      F
Tell me you want me to stay, forever
         G
'Cause heaven can wait


Guitar 2:

e-------------0-------------------------------|
B---1----1--3----3--1-----1---1--3-0---0------|
G-----0----------------0----0--------0---0----| x2
D---------------------------------------------|
A---------------------------------------------|
E---------------------------------------------|

-------------0-------------------------------|
---1----1--3----3--1-----0---0----1---1------|
-----0----------------0----0---0-----0---0---|
---------------------------------------------|
---------------------------------------------|
---------------------------------------------|

-------------0-----------------------|
---1----1--3----3--1-----1---1---0---|
-----0----------------0----0---0-----|
-------------------------------------|
-------------------------------------|
-------------------------------------|

Back to Intro:

Guitar 1:

e------0-1s3----0-1s3-1-0h1p0----0-1s3-1-0---3----0-1s3-1-0h1p0----0h1-0------|
B--1-3-------1----------------3----------------1---------------3--------3-1---|
G-----------------------------------------------------------------------------|
D-----------------------------------------------------------------------------|
A-----------------------------------------------------------------------------|
E-----------------------------------------------------------------------------|

Guitar 2: (play these chords)

C-G-Am7-G

Bridge:

F         G           Em
Here's a song for the nights
   Am        G
I drink too much and
F         G
spill my words


Repeat Chorus
Repeat Intro

Plucking version of the intro

(If you want to play it only on your own without guitar 2)


Guitar 1:

e--------------0-----------0----0--1------|
B---1----1--3-----3-1------1----1--1--3---|
G---0-0---------------0------0--------0---|
D-----------2-------------------2--2------|
A---3----------------------3--------------|
E-------------------------------------3---|


e---3--------0-1--3-----1------0-------------0-1---3---1---0-|
B-------1-------------------------1-------1------------------|
G-----0---0---------0-----0---------0---0------------0---0---|
D-------------------------------------2----------------------|
A---3-----------------------------0--------------------------|
E-----------------3-----3----3-----------------------3-------|

---3--------0-1--3-----1------0-------------1---0--------|
-------1-------------------------1-------1-----------3---|
-----0---0---------0-----0---------0---0------0---0------|
-------------------------------------2-------------------|
---3-----------------------------0-----------------------|
-----------------3---3-----3----------------3------------|

That’s all guys!!!! Hope you like it!!! Please don’t forget to rate and leave some
you all!!! It’s 99.9% I think…hehehe its for you to decide!!! Thank You Verymuch!!!! Put God
in all you do!!!! Pls add me up on facebook…

Tabber: Mark Daniel Cerezo
Band: Standupon
Members:
Christopher Estaniel – Vocals
Mark Daniel Cerezo – Lead/Rhythm
Jephtah Cabigon – Bass
Mac Jeffrey Pattaui – Drums

Special Mentions:
Armando “jan2” Mendoza – Manager (since the band is shrink and shine)
Engr. Jared Mark Bacoli - Adviser
Shan Macaraan – Vocals/Guitarist/Bassist (sessionista)
Victor Tonato – Shadow Guitarist/Lead/Rhythm
Ptr. Levi Gene Posadas – Director
Ptr. Christian Siozon – Praise Team Leader
Ptr. Cleart Cabfit – Adviser

            
            
Suggest correction
Creating personal tab
Creating personal tab
You can edit any tab online and save it as your Personal.

You can edit, replace or remove any tab part or add personal notes – all changes will be seen only by you.

Personal tabs can be accessed anytime from any device, even offline.
Learn more »
Give kudos to tab author, rate the tab!
1 2 3 4 5
comments
print report bad tab
3 comments total.
0 reply
leiser 30 Aug 17, 2013 09:17 AM

wow.. perfection

0 reply
sikatuna_09 87 Feb 03, 2014 04:48 AM

Thank you very much @leiser! :)

0 reply
miguel010angel 10 Apr 01, 2016 05:46 PM

What strumming pattern do we need for this song ?

guest
You may want to rate the tab now too:
select rating
Wanna post a correction for this tab? Suggest correction