Oops, an error
Loading. Please wait.

Drop The Mike tab

version 2
version 2

Whole song

1,256 views 6 this week
1 commentread comment
1 2 3 4 5
1 last vote to show rating
add to favorites
×
Save as Personal and add changes to this tab that will be seen only by you. Learn more ›
×
You can save this tab as Personal to edit and correct it or add notes. All changes will be seen only by you. Learn more »
launch autoscroll
font size
0
reset
how to read this tab
guitar tuner
edit
Autoscroll
slow
fast
+/-
esc
set tempo
stop
Weatherbox
Drop The Mike

Tuning: DADF#AD



Intro/Verse:
D |-------------------------------------------------------------------------|
A |-------------------------------------------------------------------------|
F#|-----3-----------5------------8-----10-----12-----------------5----------|
D |-------------------------------------------------------------------------|
A |-------------------------------------------------------------------------|
D |-----4-----------5------------9-----11-----12-----------------5----------|

Chorus (Strum these chords):
D |-------------------------------------------------------------------------|
A |-------------------------------------------------------------------------|
F#|-----3-----------5------------8-----10-----12-----------------5----------|
D |-------------------------------------------------------------------------|
A |-------------------------------------------------------------------------|
D |-----4-----------5------------9-----11-----12-----------------5----------|

Break-down Riff:
D |-------------------------------------------------------------------------|
B |-------------------------------------------------------------------------|
F#|-33-33-33-33-33-3--55-55-55-55-55-5--88-88-88-88-88-8--77-77-77-77-77-7--|
D |-------------------------------------------------------------------------|
A |-------------------------------------------------------------------------|
D |-44-44-44-44-44-4--55-55-55-55-55-5--99-99-99-99-99-9--77-77-77-77-77-7--|
PM  ..    ..    ..    ..    ..    ..    ..    ..    ..    ..    ..    ..

Verse (No, it's not that baaaaaad):
D |-------------------------------------------------------------------------|
A |-------------------------------------------------------------------------|
F#|-----3-----------5------------8-----7------5-----------------------------|
D |-------------------------------------------------------------------------|
A |-------------------------------------------------------------------------|
D |-----4-----------5------------9-----7------5-----------------------------|

Chorus (Strum these chords):
D |-------------------------------------------------------------------------|
A |-------------------------------------------------------------------------|
F#|-----3-----------5------------8-----10-----12-----------------5----------|
D |-------------------------------------------------------------------------|
A |-------------------------------------------------------------------------|
D |-----4-----------5------------9-----11-----12-----------------5----------|

Verse:
D |-------------------------------------------------------------------------|
A |-------------------------------------------------------------------------|
F#|-----3-----------5------------8-----10-----12----------------------------|
D |--------------------------------------------------------------7----------|
A |-------------------------------------------------------------------------|
D |-----4-----------5------------9-----11-----12-----------------5----------|

            
            
Suggest correction
Creating personal tab
Creating personal tab
You can edit any tab online and save it as your Personal.

You can edit, replace or remove any tab part or add personal notes – all changes will be seen only by you.

Personal tabs can be accessed anytime from any device, even offline.
Learn more »
Give kudos to tab author, rate the tab!
1 2 3 4 5
comments
print report bad tab
1 comment total.
0 reply
S2S 306 Feb 04, 2012 08:08 AM

The breakdown/rap riff is actually:

D ------------------------------------------------
A ------------------------------------------------
F#-3-3--3-3---5-5--5-5---8-8--8-8---7---5-5--5-5--
D ------------------------------------------------
A ------------------------------------------------
D -4-4--4-4---5-5--5-5---9-9--9-9---7---5-5--5-5--
. . . . . . . .


Use the rhythm that is tabbed out above but substitute the chords I posted. I couldn't fit each chords' repetition in the comment box, but you basically play each one three times except for the 7/7 which is only played once as a bridge between 9/8 and 5/5.

guest
You may want to rate the tab now too:
select rating
Wanna post a correction for this tab? Suggest correction