Oops, an error
Loading. Please wait.

My Demise tab

version 2
version 2

Whole song

Interactive

2,469 views 1 this week
no commentswrite comment
1 2 3 4 5
x 7
add to favorites
×
Save as Personal and add changes to this tab that will be seen only by you. Learn more ›
×
You can save this tab as Personal to edit and correct it or add notes. All changes will be seen only by you. Learn more »
launch autoscroll
font size
0
reset
how to read this tab
guitar tuner
edit
Autoscroll
slow
fast
+/-
esc
set tempo
stop
This tab is created by Living Dead 31.

Album: Skeletons (2008)

Tuning: Drop C



[Intro] 

D|--0---0--0--0-0-0--0-0--0---0--0--0-0-0--0-0-----------------------------------------------------|
A|--1---1--1--1-1-1--1-1--1---1--1--1-1-1--1-1-----------------------------------------------------|
F|--2---2--2--2-2-2--2-2--0---0--0--0-0-0--0-0-----------------------------------------------------|
C|--2---2--2--2-2-2--2-2--2---2--2--2-2-2--2-2---3---3--3--3-3-3--3/5--5-5--2---2--2--2-2-2--2-2---|
G|--0---0--0--0-0-0--0-0--3---3--3--3-3-3--3-3---3---3--3--3-3-3--3/5--5-5--2---2--2--2-2-2--2-2---|
C|-----------------------------------------------3---3--3--3-3-3--3/5--5-5--2---2--2--2-2-2--2-2---|


[Verse] 

D|--0---0--0--0-0-0--0-0--0---0--0--0-0-0--0-0-----------------------------------------------------|
A|--1---1--1--1-1-1--1-1--1---1--1--1-1-1--1-1-----------------------------------------------------|
F|--2---2--2--2-2-2--2-2--0---0--0--0-0-0--0-0-----------------------------------------------------|
C|--2---2--2--2-2-2--2-2--2---2--2--2-2-2--2-2---3---3--3--3-3-3--3/5--5-5--2---2--2--2-2-2--2-2---|
G|--0---0--0--0-0-0--0-0--3---3--3--3-3-3--3-3---3---3--3--3-3-3--3/5--5-5--2---2--2--2-2-2--2-2---|
C|-----------------------------------------------3---3--3--3-3-3--3/5--5-5--2---2--2--2-2-2--2-2---| (x2)


[Pre-Chorus] 

D|-----------------------------------------------------------------------------------|
A|-----------------------------------------------------------------------------------|
F|-----------------------------------------------------------------------------------|
C|--3---3--3--3-3-3--3/5--5-5--2---2--2--2-2-2--2-2---3---3--3--3-3-3--3/5--5-5--2---|
G|--3---3--3--3-3-3--3/5--5-5--2---2--2--2-2-2--2-2---3---3--3--3-3-3--3/5--5-5--2---|
C|--3---3--3--3-3-3--3/5--5-5--2---2--2--2-2-2--2-2---3---3--3--3-3-3--3/5--5-5--2---|


[Chorus] 

D|---------------------------------------------------------------------------------------------|
A|---------------------------------------------------------------------------------------------|
F|--/--5--5--5-5-5--5--5-5-------------------------5--5--5-5-5--5--5-5-------------------------|
C|--/--5--5--5-5-5--5--5-5---3--3--3-3-3--3--3-3---5--5--5-5-5--5--5-5---3--3--3-3-3--3--3-3---|
G|--/--3--3--3-3-3--3--3-3---3--3--3-3-3--3--3-3---3--3--3-3-3--3--3-3---3--3--3-3-3--3--3-3---|
C|---------------------------3--3--3-3-3--3--3-3-------------------------3--3--3-3-3--3--3-3---|


D|-----------------------------------------------------------------------------------------------|
A|-----------------------------------------------------------------------------------------------|
F|--5--5--5-5-5--5--5-5----------------------------------------------------5--5--5-5-5--5--5-5---|
C|--5--5--5-5-5--5--5-5---3--3--3-3-3--3--3-3---5---5---5-5--3---3---3-3---5--5--5-5-5--5--5-5---|
G|--3--3--3-3-3--3--3-3---3--3--3-3-3--3--3-3---5---5---5-5--3---3---3-3---3--3--3-3-3--3--3-3---|
C|------------------------3--3--3-3-3--3--3-3---5---5---5-5--3---3---3-3-------------------------|


D|--------------------------------------------------------|
A|--------------------------------------------------------|
F|--------------------------------------------------------|
C|--5---5---5-5--3---3---3-3--2--2--2--2--2--2--2--2--2---|
G|--5---5---5-5--3---3---3-3--2--2--2--2--2--2--2--2--2---|
C|--5---5---5-5--3---3---3-3--2--2--2--2--2--2--2--2--2---|


[Verse] 

D|--0---0--0--0-0-0--0-0--0---0--0--0-0-0--0-0-----------------------------------------------------|
A|--1---1--1--1-1-1--1-1--1---1--1--1-1-1--1-1-----------------------------------------------------|
F|--2---2--2--2-2-2--2-2--0---0--0--0-0-0--0-0-----------------------------------------------------|
C|--2---2--2--2-2-2--2-2--2---2--2--2-2-2--2-2---3---3--3--3-3-3--3/5--5-5--2---2--2--2-2-2--2-2---|
G|--0---0--0--0-0-0--0-0--3---3--3--3-3-3--3-3---3---3--3--3-3-3--3/5--5-5--2---2--2--2-2-2--2-2---|
C|-----------------------------------------------3---3--3--3-3-3--3/5--5-5--2---2--2--2-2-2--2-2---| (x2)


[Pre-Chorus] 

D|-----------------------------------------------------------------------------------|
A|-----------------------------------------------------------------------------------|
F|-----------------------------------------------------------------------------------|
C|--3---3--3--3-3-3--3/5--5-5--2---2--2--2-2-2--2-2---3---3--3--3-3-3--3/5--5-5--2---|
G|--3---3--3--3-3-3--3/5--5-5--2---2--2--2-2-2--2-2---3---3--3--3-3-3--3/5--5-5--2---|
C|--3---3--3--3-3-3--3/5--5-5--2---2--2--2-2-2--2-2---3---3--3--3-3-3--3/5--5-5--2---|


[Chorus] 

D|---------------------------------------------------------------------------------------------|
A|---------------------------------------------------------------------------------------------|
F|---5--5--5-5-5--5--5-5-------------------------5--5--5-5-5--5--5-5---------------------------|
C|---5--5--5-5-5--5--5-5---3--3--3-3-3--3--3-3---5--5--5-5-5--5--5-5---3--3--3-3-3--3--3-3-----|
G|---3--3--3-3-3--3--3-3---3--3--3-3-3--3--3-3---3--3--3-3-3--3--3-3---3--3--3-3-3--3--3-3-----|
C|-------------------------3--3--3-3-3--3--3-3-------------------------3--3--3-3-3--3--3-3-----|


D|-----------------------------------------------------------------------------------------------|
A|-----------------------------------------------------------------------------------------------|
F|--5--5--5-5-5--5--5-5----------------------------------------------------5--5--5-5-5--5--5-5---|
C|--5--5--5-5-5--5--5-5---3--3--3-3-3--3--3-3---5---5---5-5--3---3---3-3---5--5--5-5-5--5--5-5---|
G|--3--3--3-3-3--3--3-3---3--3--3-3-3--3--3-3---5---5---5-5--3---3---3-3---3--3--3-3-3--3--3-3---|
C|------------------------3--3--3-3-3--3--3-3---5---5---5-5--3---3---3-3-------------------------|


D|--------------------------------------------------------|
A|--------------------------------------------------------|
F|--------------------------------------------------------|
C|--5---5---5-5--3---3---3-3--2--2--2--2--2--2--2--2--2---|
G|--5---5---5-5--3---3---3-3--2--2--2--2--2--2--2--2--2---|
C|--5---5---5-5--3---3---3-3--2--2--2--2--2--2--2--2--2---|


[Bridge] 

D|---------------------------------------------------------------------------------------------|
A|---------------------------------------------------------------------------------------------|
F|---6--6--6-6-6--6--6-6-------------------------6--6--6-6-6--6--6-6---------------------------|
C|---6--6--6-6-6--6--6-6---4--4--4-4-4--4--4-4---6--6--6-6-6--6--6-6---4--4--4-4-4--4--4-4-----|
G|---4--4--4-4-4--4--4-4---4--4--4-4-4--4--4-4---4--4--4-4-4--4--4-4---4--4--4-4-4--4--4-4-----|
C|-------------------------4--4--4-4-4--4--4-4-------------------------4--4--4-4-4--4--4-4-----|


D|-----------------------------------------------------------------------|
A|-----------------------------------------------------------------------|
F|--6--6--6-6-6--6--6-6--------------------------------------------------|
C|--6--6--6-6-6--6--6-6---4--4--4-4---6---4--3--3--3--3--3--3--3--3--2---|
G|--4--4--4-4-4--4--4-4---4--4--4-4---6---4--3--3--3--3--3--3--3--3--2---|
C|------------------------4--4--4-4---6---4--3--3--3--3--3--3--3--3--2---|


[Chorus] 

D|---------------------------------------------------------------------------------------------|
A|---------------------------------------------------------------------------------------------|
F|---5--5--5-5-5--5--5-5-------------------------5--5--5-5-5--5--5-5---------------------------|
C|---5--5--5-5-5--5--5-5---3--3--3-3-3--3--3-3---5--5--5-5-5--5--5-5---3--3--3-3-3-3-3-3-3-3---|
G|---3--3--3-3-3--3--3-3---3--3--3-3-3--3--3-3---3--3--3-3-3--3--3-3---3--3--3-3-3-3-3-3-3-3---|
C|-------------------------3--3--3-3-3--3--3-3-------------------------3--3--3-3-3-3-3-3-3-3---|


D|---------------------------------------------------------------------------------------------|
A|---------------------------------------------------------------------------------------------|
F|---5--5--5-5-5--5--5-5-------------------------5--5--5-5-5--5--5-5---------------------------|
C|---5--5--5-5-5--5--5-5---3--3--3-3-3--3--3-3---5--5--5-5-5--5--5-5---3--3--3-3-3--3--3-3-----|
G|---3--3--3-3-3--3--3-3---3--3--3-3-3--3--3-3---3--3--3-3-3--3--3-3---3--3--3-3-3--3--3-3-----|
C|-------------------------3--3--3-3-3--3--3-3-------------------------3--3--3-3-3--3--3-3-----|


D|-----------------------------------------------------------------------------------------------|
A|-----------------------------------------------------------------------------------------------|
F|--5--5--5-5-5--5--5-5----------------------------------------------------5--5--5-5-5--5--5-5---|
C|--5--5--5-5-5--5--5-5---3--3--3-3-3--3--3-3---5---5---5-5--3---3---3-3---5--5--5-5-5--5--5-5---|
G|--3--3--3-3-3--3--3-3---3--3--3-3-3--3--3-3---5---5---5-5--3---3---3-3---3--3--3-3-3--3--3-3---|
C|------------------------3--3--3-3-3--3--3-3---5---5---5-5--3---3---3-3-------------------------|


D|-------------------------------------------------|
A|-------------------------------------------------|
F|-------------------------------------------------|
C|--5---5---5-5--3---3---3-3---2--2--2-2-2--2--2---|
G|--5---5---5-5--3---3---3-3---2--2--2-2-2--2--2---|
C|--5---5---5-5--3---3---3-3---2--2--2-2-2--2--2---| (x2)


D|-----------------------------------------------------------------|
A|-----------------------------------------------------------------|
F|-----------------------------------------------------------------|
C|--5---5---5-5--3---3---3-3---2-2-2-2-2-2-2-2-2-2-2-2-2-2-2-2-2---|
G|--5---5---5-5--3---3---3-3---2-2-2-2-2-2-2-2-2-2-2-2-2-2-2-2-2---|
C|--5---5---5-5--3---3---3-3---2-2-2-2-2-2-2-2-2-2-2-2-2-2-2-2-2---|


[Outro] 

D|---------------------------------------------------------------------------------------------|
A|---------------------------------------------------------------------------------------------|
F|---5--5--5-5-5--5--5-5-------------------------5--5--5-5-5--5--5-5---------------------------|
C|---5--5--5-5-5--5--5-5---3--3--3-3-3--3--3-3---5--5--5-5-5--5--5-5---3--3--3-3-3--3--3-3-----|
G|---3--3--3-3-3--3--3-3---3--3--3-3-3--3--3-3---3--3--3-3-3--3--3-3---3--3--3-3-3--3--3-3-----|
C|-------------------------3--3--3-3-3--3--3-3-------------------------3--3--3-3-3--3--3-3-----| (x2)


/ - Slide up

            
            
Suggest correction
Creating personal tab
Creating personal tab
You can edit any tab online and save it as your Personal.

You can edit, replace or remove any tab part or add personal notes – all changes will be seen only by you.

Personal tabs can be accessed anytime from any device, even offline.
Learn more »
comments
print report bad tab
guest
You may want to rate the tab now too:
select rating
Wanna post a correction for this tab? Suggest correction