Oops, an error
Loading. Please wait.

Skeletons album tab

version 1
version 1

Album

Whole song

Interactive

157 views 1 this week
no commentswrite comment
1 2 3 4 5
1 last vote to show rating
add to favorites
×
Save as Personal and add changes to this tab that will be seen only by you. Learn more ›
×
You can save this tab as Personal to edit and correct it or add notes. All changes will be seen only by you. Learn more »
launch autoscroll
font size
0
reset
how to read this tab
guitar tuner
edit
Autoscroll
slow
fast
+/-
esc
set tempo
stop
This album tab is created by Living Dead 31.


Wednesday 13 - Skeletons (2008)


Tuning  Drop C







1. Scream Baby Scream



[Intro]


D|-----------------------------------------------------------------------------------|
A|-----------------------------------------------------------------------------------|
F|-----------------------------------------------------------------------------------|
C|--0-0--3-3-0-0-6-6-5-5-3-3---0-0--3-3-0-0-6-6-5-5-3-3---0-0--3-3-0-0-6-6-5-5-3-3---|
G|--0-0--3-3-0-0-6-6-5-5-3-3---0-0--3-3-0-0-6-6-5-5-3-3---0-0--3-3-0-0-6-6-5-5-3-3---|
C|--0-0--3-3-0-0-6-6-5-5-3-3---0-0--3-3-0-0-6-6-5-5-3-3---0-0--3-3-0-0-6-6-5-5-3-3---|

D|-----------------------------------------------------------------------------------|
A|-----------------------------------------------------------------------------------|
F|-----------------------------------------------------------------------------------|
C|--0-0--3-3-0-0-6-6-5-5-3-3---0-0--3-3-0-0-6-6-5-5-3-3---0-0--3-3-0-0-6-6-5-5-3-3---|
G|--0-0--3-3-0-0-6-6-5-5-3-3---0-0--3-3-0-0-6-6-5-5-3-3---0-0--3-3-0-0-6-6-5-5-3-3---|
C|--0-0--3-3-0-0-6-6-5-5-3-3---0-0--3-3-0-0-6-6-5-5-3-3---0-0--3-3-0-0-6-6-5-5-3-3---|


D|------------------------------------------|
A|------------------------------------------|
F|------------------------------------------|
C|--0-0--3-3-0-0-6-6-5-5-3-3--0-0-3-3-3-0---|
G|--0-0--3-3-0-0-6-6-5-5-3-3--0-0-3-3-3-0---|
C|--0-0--3-3-0-0-6-6-5-5-3-3--0-0-3-3-3-0---|


[Verse]

D|--------------------------------------------------------------------------------|
A|--------------------------------------------------------------------------------|
F|--------------------------------------------------------------------------------|
C|--0000--000-000--0-3--0000--000-000-0-3--0000--000-000-0-3--0000--000-000-0-3---|
G|--0000--000-000--0-3--0000--000-000-0-3--0000--000-000-0-3--0000--000-000-0-3---|
C|--0000--000-000--0-3--0000--000-000-0-3--0000--000-000-0-3--0000--000-000-0-3---|


D|-----------------------------------------------------------------------|
A|-----------------------------------------------------------------------|
F|-----------------------------------------------------------------------|
C|--0--0--00-00-3-0--0--0--00-00-3-0--0--0--00-00-3-0--0--0--00-00-3-0---|
G|--0--0--00-00-3-0--0--0--00-00-3-0--0--0--00-00-3-0--0--0--00-00-3-0---|
C|--0--0--00-00-3-0--0--0--00-00-3-0--0--0--00-00-3-0--0--0--00-00-3-0---|


[Pre-Chorus] 

D|-----------------------------------------------------------------------------------|
A|-----------------------------------------------------------------------------------|
F|-----------------------------------------------------------------------------------|
C|--0-0--3-3-0-0-6-6-5-5-3-3---0-0--3-3-0-0-6-6-5-5-3-3---0-0--3-3-0-0-6-6-5-5-3-3---|
G|--0-0--3-3-0-0-6-6-5-5-3-3---0-0--3-3-0-0-6-6-5-5-3-3---0-0--3-3-0-0-6-6-5-5-3-3---|
C|--0-0--3-3-0-0-6-6-5-5-3-3---0-0--3-3-0-0-6-6-5-5-3-3---0-0--3-3-0-0-6-6-5-5-3-3---|

D|-----------------------------|
A|-----------------------------|
F|-----------------------------|
C|--0-0--3-3-0-0-6-6-5-5-3-3---|
G|--0-0--3-3-0-0-6-6-5-5-3-3---|
C|--0-0--3-3-0-0-6-6-5-5-3-3---|


[Chorus]

D|------------------------------------------------------------------------------|
A|------------------------------------------------------------------------------|
F|------------------------------------------------------------------------------|
C|--0-0-0--00--00-0-0--0-0-0--00--00-0-0--3-3-3--33--33-3-3--3-3-3--33--33-3-3--|
G|--0-0-0--00--00-0-0--0-0-0--00--00-0-0--3-3-3--33--33-3-3--3-3-3--33--33-3-3--|
C|--0-0-0--00--00-0-0--0-0-0--00--00-0-0--3-3-3--33--33-3-3--3-3-3--33--33-3-3--|

D|-----------------------------------------|
A|-----------------------------------------|
F|-----------------------------------------|
C|--2-2-2--22--22-2-2--2-2-2--22--22-2-2---|
G|--2-2-2--22--22-2-2--2-2-2--22--22-2-2---|
C|--2-2-2--22--22-2-2--2-2-2--22--22-2-2---|

D|-----------------------------------------------------------------------------------|
A|-----------------------------------------------------------------------------------|
F|-----------------------------------------------------------------------------------|
C|--0-0--3-3-0-0-6-6-5-5-3-3---0-0--3-3-0-0-6-6-5-5-3-3---0-0--3-3-0-0-6-6-5-5-3-3---|
G|--0-0--3-3-0-0-6-6-5-5-3-3---0-0--3-3-0-0-6-6-5-5-3-3---0-0--3-3-0-0-6-6-5-5-3-3---|
C|--0-0--3-3-0-0-6-6-5-5-3-3---0-0--3-3-0-0-6-6-5-5-3-3---0-0--3-3-0-0-6-6-5-5-3-3---|

D|-----------------------------|
A|-----------------------------|
F|-----------------------------|
C|--0-0--3-3-0-0-6-6-5-5-3-3---|
G|--0-0--3-3-0-0-6-6-5-5-3-3---|
C|--0-0--3-3-0-0-6-6-5-5-3-3---|


[Verse]

D|--------------------------------------------------------------------------------|
A|--------------------------------------------------------------------------------|
F|--------------------------------------------------------------------------------|
C|--0000--000-000--0-3--0000--000-000-0-3--0000--000-000-0-3--0000--000-000-0-3---|
G|--0000--000-000--0-3--0000--000-000-0-3--0000--000-000-0-3--0000--000-000-0-3---|
C|--0000--000-000--0-3--0000--000-000-0-3--0000--000-000-0-3--0000--000-000-0-3---|


D|-----------------------------------------------------------------------|
A|-----------------------------------------------------------------------|
F|-----------------------------------------------------------------------|
C|--0--0--00-00-3-0--0--0--00-00-3-0--0--0--00-00-3-0--0--0--00-00-3-0---|
G|--0--0--00-00-3-0--0--0--00-00-3-0--0--0--00-00-3-0--0--0--00-00-3-0---|
C|--0--0--00-00-3-0--0--0--00-00-3-0--0--0--00-00-3-0--0--0--00-00-3-0---|


[Pre-Chorus]

D|-----------------------------------------------------------------------------------|
A|-----------------------------------------------------------------------------------|
F|-----------------------------------------------------------------------------------|
C|--0-0--3-3-0-0-6-6-5-5-3-3---0-0--3-3-0-0-6-6-5-5-3-3---0-0--3-3-0-0-6-6-5-5-3-3---|
G|--0-0--3-3-0-0-6-6-5-5-3-3---0-0--3-3-0-0-6-6-5-5-3-3---0-0--3-3-0-0-6-6-5-5-3-3---|
C|--0-0--3-3-0-0-6-6-5-5-3-3---0-0--3-3-0-0-6-6-5-5-3-3---0-0--3-3-0-0-6-6-5-5-3-3---|

D|-----------------------------|
A|-----------------------------|
F|-----------------------------|
C|--0-0--3-3-0-0-6-6-5-5-3-3---|
G|--0-0--3-3-0-0-6-6-5-5-3-3---|
C|--0-0--3-3-0-0-6-6-5-5-3-3---|


[Chorus]

D|------------------------------------------------------------------------------|
A|------------------------------------------------------------------------------|
F|------------------------------------------------------------------------------|
C|--0-0-0--00--00-0-0--0-0-0--00--00-0-0--3-3-3--33--33-3-3--3-3-3--33--33-3-3--|
G|--0-0-0--00--00-0-0--0-0-0--00--00-0-0--3-3-3--33--33-3-3--3-3-3--33--33-3-3--|
C|--0-0-0--00--00-0-0--0-0-0--00--00-0-0--3-3-3--33--33-3-3--3-3-3--33--33-3-3--|

D|-----------------------------------------|
A|-----------------------------------------|
F|-----------------------------------------|
C|--2-2-2--22--22-2-2--2-2-2--22--22-2-2---|
G|--2-2-2--22--22-2-2--2-2-2--22--22-2-2---|
C|--2-2-2--22--22-2-2--2-2-2--22--22-2-2---|

D|-----------------------------------------------------------------------------------|
A|-----------------------------------------------------------------------------------|
F|-----------------------------------------------------------------------------------|
C|--0-0--3-3-0-0-6-6-5-5-3-3---0-0--3-3-0-0-6-6-5-5-3-3---0-0--3-3-0-0-6-6-5-5-3-3---|
G|--0-0--3-3-0-0-6-6-5-5-3-3---0-0--3-3-0-0-6-6-5-5-3-3---0-0--3-3-0-0-6-6-5-5-3-3---|
C|--0-0--3-3-0-0-6-6-5-5-3-3---0-0--3-3-0-0-6-6-5-5-3-3---0-0--3-3-0-0-6-6-5-5-3-3---|

D|-----------------------------|
A|-----------------------------|
F|-----------------------------|
C|--0-0--3-3-0-0-6-6-5-5-3-3---|
G|--0-0--3-3-0-0-6-6-5-5-3-3---|
C|--0-0--3-3-0-0-6-6-5-5-3-3---|


[Solo]

D|------10~------10~-------10~-------10~--------13~--------13~--------13~-----13~---|
A|----------------------------------------------------------------------------------|
F|--7-------7--------7----------7--------10----------10---------10--------10--------|
C|----------------------------------------------------------------------------------|
G|----------------------------------------------------------------------------------|
C|----------------------------------------------------------------------------------|

D|------10~------10~-------10~-------10~--------13~--------13~--------13~-----13~---------------|
A|----------------------------------------------------------------------------------------------|
F|--7-------7--------7----------7--------10----------10---------10--------10--------/15~---3~---|
C|----------------------------------------------------------------------------------------------|
G|----------------------------------------------------------------------------------------------|
C|----------------------------------------------------------------------------------------------|


[Chorus]

D|------------------------------------------------------------------------------|
A|------------------------------------------------------------------------------|
F|------------------------------------------------------------------------------|
C|--0-0-0--00--00-0-0--0-0-0--00--00-0-0--3-3-3--33--33-3-3--3-3-3--33--33-3-3--|
G|--0-0-0--00--00-0-0--0-0-0--00--00-0-0--3-3-3--33--33-3-3--3-3-3--33--33-3-3--|
C|--0-0-0--00--00-0-0--0-0-0--00--00-0-0--3-3-3--33--33-3-3--3-3-3--33--33-3-3--|

D|-----------------------------------------|
A|-----------------------------------------|
F|-----------------------------------------|
C|--2-2-2--22--22-2-2--2-2-2--22--22-2-2---|
G|--2-2-2--22--22-2-2--2-2-2--22--22-2-2---|
C|--2-2-2--22--22-2-2--2-2-2--22--22-2-2---|

D|-----------------------------------------------------------------------------------|
A|-----------------------------------------------------------------------------------|
F|-----------------------------------------------------------------------------------|
C|--0-0--3-3-0-0-6-6-5-5-3-3---0-0--3-3-0-0-6-6-5-5-3-3---0-0--3-3-0-0-6-6-5-5-3-3---|
G|--0-0--3-3-0-0-6-6-5-5-3-3---0-0--3-3-0-0-6-6-5-5-3-3---0-0--3-3-0-0-6-6-5-5-3-3---|
C|--0-0--3-3-0-0-6-6-5-5-3-3---0-0--3-3-0-0-6-6-5-5-3-3---0-0--3-3-0-0-6-6-5-5-3-3---|

D|-----------------------------|
A|-----------------------------|
F|-----------------------------|
C|--0-0--3-3-0-0-6-6-5-5-3-3---|
G|--0-0--3-3-0-0-6-6-5-5-3-3---|
C|--0-0--3-3-0-0-6-6-5-5-3-3---|


[Outro]

D|------------------------------------------------------------------------------------------|
A|------------------------------------------------------------------------------------------|
F|------------------------------------------------------------------------------------------|
C|--0000--000-000--0-3--0000--000-000--0-3--0000--000-000--0-3--0000--000-000--0-3---0000---|
G|--0000--000-000--0-3--0000--000-000--0-3--0000--000-000--0-3--0000--000-000--0-3---0000---|
C|--0000--000-000--0-3--0000--000-000--0-3--0000--000-000--0-3--0000--000-000--0-3---0000---|







2. Not Another Teenage Anthem




[Intro]

D|-----------------------------------------------|
A|-----------------------------------------------|
F|-----------------------------------------------|
C|--2----0-2-5--2----0-2----0-2---7--7--5--5-5---|
G|--2----0-2-5--2----0-2----0-2---7--7--5--5-5---|
C|--2----0-2-5--2----0-2----0-2---7--7--5--5-5---|  (x2)


[Verse]

D|-----------------------------------------------|
A|-----------------------------------------------|
F|-----------------------------------------------|
C|--2----0-2-5--2----0-2----0-2---7--7--5--5-5---|
G|--2----0-2-5--2----0-2----0-2---7--7--5--5-5---|
C|--2----0-2-5--2----0-2----0-2---7--7--5--5-5---|  (x2)
   .    . . .  .    . .    . .   .  .  .  . .

D|-----------------------------------------------|
A|-----------------------------------------------|
F|-----------------------------------------------|
C|--2----0-2-5--2----0-2----0-2---7--7--5--5-5---|
G|--2----0-2-5--2----0-2----0-2---7--7--5--5-5---|
C|--2----0-2-5--2----0-2----0-2---7--7--5--5-5---|  (x2)


[Pre-Chorus] 

"Mom and Dad look at me now...."

D|---------------------------------------------------------------|
A|---------------------------------------------------------------|
F|---------------------------------------------------------------|
C|--9--9-9-9-9-9---2--2-2---      --5--5-5-5-5-5-5---7-5-7-5-7---|
G|--9--9-9-9-9-9---2--2-2---      --5--5-5-5-5-5-5---7-5-7-5-7---|
C|--9--9-9-9-9-9---2--2-2--- x(3) --5--5-5-5-5-5-5---7-5-7-5-7---|


[Chorus]

D|-----------------------------------------------|
A|-----------------------------------------------|
F|-----------------------------------------------|
C|--2----0-2-5--2----0-2----0-2---7--7--5--5-5---|
G|--2----0-2-5--2----0-2----0-2---7--7--5--5-5---|
C|--2----0-2-5--2----0-2----0-2---7--7--5--5-5---|  (x2)


[Bridge]

"But it sounds like one...."

D|------------------------------------      --------|
A|--12-13-14-15--15----9---8-9-8-7/---      --17~---|
F|------------------------------------      --------|
C|------------------------------------      --------|
G|------------------------------------      --------|
C|------------------------------------ (x4) --------|


[Verse]

D|-----------------------------------------------|
A|-----------------------------------------------|
F|-----------------------------------------------|
C|--2----0-2-5--2----0-2----0-2---7--7--5--5-5---|
G|--2----0-2-5--2----0-2----0-2---7--7--5--5-5---|
C|--2----0-2-5--2----0-2----0-2---7--7--5--5-5---|  (x2)
   .    . . .  .    . .    . .   .  .  .  . .

D|-----------------------------------------------|
A|-----------------------------------------------|
F|-----------------------------------------------|
C|--2----0-2-5--2----0-2----0-2---7--7--5--5-5---|
G|--2----0-2-5--2----0-2----0-2---7--7--5--5-5---|
C|--2----0-2-5--2----0-2----0-2---7--7--5--5-5---|  (x2)


[Pre-Chorus]

"Mom and Dad look at me now...."

D|------------------------------------------------------------------|
A|------------------------------------------------------------------|
F|------------------------------------------------------------------|
C|--9--9-9-9-9-9--5---2--2-2---      --5--5-5-5-5-5-5---7-7-7-7-7---|
G|--9--9-9-9-9-9--5---2--2-2---      --5--5-5-5-5-5-5---7-7-7-7-7---|
C|--9--9-9-9-9-9--5---2--2-2--- x(3) --5--5-5-5-5-5-5---7-7-7-7-7---|


[Chorus]

D|-----------------------------------------------|
A|-----------------------------------------------|
F|-----------------------------------------------|
C|--2----0-2-5--2----0-2----0-2---7--7--5--5-5---|
G|--2----0-2-5--2----0-2----0-2---7--7--5--5-5---|
C|--2----0-2-5--2----0-2----0-2---7--7--5--5-5---|  (x2)


[Bridge 2]

"And we don't need a reason..."

D|-----------------------------------------------------------------|
A|-----------------------------------------------------------------|
F|-----------------------------------------------------------------|
C|--8-7-5-2---8-7-5-2---8-7-5-2-----5--5-5-5-5-5-5-5---7-5-7-5-7---|
G|--8-7-5-2---8-7-5-2---8-7-5-2-----5--5-5-5-5-5-5-5---7-5-7-5-7---|
C|--8-7-5-2---8-7-5-2---8-7-5-2-----5--5-5-5-5-5-5-5---7-5-7-5-7---|
                                   .  . . .

[Verse]

D|-----------------------------------------------|
A|-----------------------------------------------|
F|-----------------------------------------------|
C|--2----0-2-5--2----0-2----0-2---7--7--5--5-5---|
G|--2----0-2-5--2----0-2----0-2---7--7--5--5-5---|
C|--2----0-2-5--2----0-2----0-2---7--7--5--5-5---|  (x2)


[Pre-Chorus]

D|------------------------------------------------------------------|
A|------------------------------------------------------------------|
F|------------------------------------------------------------------|
C|--9--9-9-9-9-9--5---2--2-2---      --5--5-5-5-5-5-5---7-7-7-7-7---|
G|--9--9-9-9-9-9--5---2--2-2---      --5--5-5-5-5-5-5---7-7-7-7-7---|
C|--9--9-9-9-9-9--5---2--2-2--- x(3) --5--5-5-5-5-5-5---7-7-7-7-7---|


[Chorus]

D|---------------------------------------------------|
A|---------------------------------------------------|
F|---------------------------------------------------|
C|--/-2----0-2-5--2----0-2----0-2---7--7--5--5-5-----|
G|--/-2----0-2-5--2----0-2----0-2---7--7--5--5-5-----|
C|--/-2----0-2-5--2----0-2----0-2---7--7--5--5-5-----|  (x2)


[Outro]

D|------------------------------------------------------------------|
A|------------------------------------------------------------------|
F|------------------------------------------------------------------|
C|--9--9-9-9-9-9--5---2--2-2---      --5--5-5-5-5-5-5---7-7-7-7-7---|
G|--9--9-9-9-9-9--5---2--2-2---      --5--5-5-5-5-5-5---7-7-7-7-7---|
C|--9--9-9-9-9-9--5---2--2-2--- x(3) --5--5-5-5-5-5-5---7-7-7-7-7---|

D|--------------------|
A|--------------------|
F|--------------------|
C|--8-7-5-2---2---2---|
G|--8-7-5-2---2---2---|
C|--8-7-5-2---2---2---|







3. Gimmie Gimmie Bloodshed



[Intro]

D|-------------------------------------------------------------|
A|-------------------------------------------------------------|
F|-------------------------------------------------------------|
C|--2-2-2--2-2-0---2-2-2--2-2-5--2-2-2--2-2-0--2-2-2---8-8-8---|
G|--2-2-2--2-2-0---2-2-2--2-2-5--2-2-2--2-2-0--2-2-2---8-8-8---|
C|--2-2-2--2-2-0---2-2-2--2-2-5--2-2-2--2-2-0--2-2-2---8-8-8---| (x2)

Or You Can Do With This Version 

D|-------------------------------------------------------------|
A|-------------------------------------------------------------|
F|-----------------------------------------------------3-3-3---|
C|--2-2-2--2-2-0---2-2-2--2-2-5--2-2-2--2-2-0--2-2-2---3-3-3---|
G|--2-2-2--2-2-0---2-2-2--2-2-5--2-2-2--2-2-0--2-2-2---1-1-1---|
C|--2-2-2--2-2-0---2-2-2--2-2-5--2-2-2--2-2-0--2-2-2-----------|  (x2)


[Verse]

D|------------------------------------------------------|
A|------------------------------------------------------|
F|------------------------------------------------------|
C|------------------------------------------------------|
G|------------------------------------------------------|
C|--2-2-2-2-2-2-2-2-2-2-2-2-2-2-2-2-2-2-2-2-2-2-2-2-2---|
   . . . . . . . . . . . . . . . . . . . . . . . . .

D|--------------------------------------------------------------------|
A|--------------------------------------------------------------------|
F|--------------------------------------------------------------------|
C|--------------------------------------------------------------------|
G|--------------------------------------------------------------------|
C|--5-5-5-5-5-5-5-5-5-5-5-5-5-5-5-5-7-7-7-7-7-7-7-7-7-7-7-7-7-7-7-7---| (x2)
   . . . . . . . . . . . . . . . . . . . . . . . . . . . . . . . .


[Chorus]

D|-------------------------------------------------------------|
A|-------------------------------------------------------------|
F|-------------------------------------------------------------|
C|--2-2-2--2-2-0---2-2-2--2-2-5--2-2-2--2-2-0--2-2-2---8-8-8---|
G|--2-2-2--2-2-0---2-2-2--2-2-5--2-2-2--2-2-0--2-2-2---8-8-8---|
C|--2-2-2--2-2-0---2-2-2--2-2-5--2-2-2--2-2-0--2-2-2---8-8-8---| (x2)


[Verse]

D|------------------------------------------------------|
A|------------------------------------------------------|
F|------------------------------------------------------|
C|------------------------------------------------------|
G|------------------------------------------------------|
C|--2-2-2-2-2-2-2-2-2-2-2-2-2-2-2-2-2-2-2-2-2-2-2-2-2---|
   . . . . . . . . . . . . . . . . . . . . . . . . .

D|--------------------------------------------------------------------|
A|--------------------------------------------------------------------|
F|--------------------------------------------------------------------|
C|--------------------------------------------------------------------|
G|--------------------------------------------------------------------|
C|--5-5-5-5-5-5-5-5-5-5-5-5-5-5-5-5-7-7-7-7-7-7-7-7-7-7-7-7-7-7-7-7---| (x2)
   . . . . . . . . . . . . . . . . . . . . . . . . . . . . . . . .


[Chorus]

D|-------------------------------------------------------------|
A|-------------------------------------------------------------|
F|-------------------------------------------------------------|
C|--2-2-2--2-2-0---2-2-2--2-2-5--2-2-2--2-2-0--2-2-2---8-8-8---|
G|--2-2-2--2-2-0---2-2-2--2-2-5--2-2-2--2-2-0--2-2-2---8-8-8---|
C|--2-2-2--2-2-0---2-2-2--2-2-5--2-2-2--2-2-0--2-2-2---8-8-8---| (x4)


[Bridge]

D|---------------------      ------------------------|
A|---------------------      ------------------------|
F|--5----7------9------      ------------------------|
C|--5----7--7---9--9---      --3-3-3-3-3-3-5-5-5-2---|
G|--3----5--7---7--9---      --3-3-3-3-3-3-5-5-5-2---|
C|----------7------9--- (x3) --3-3-3-3-3-3-5-5-5-2---|


[Verse]

D|-------------------------------------------------------------|
A|-------------------------------------------------------------|
F|-------------------------------------------------------------|
C|--2-2-2--2-2-0---2-2-2--2-2-5--2-2-2--2-2-0--2-2-2---8-8-8---|
G|--2-2-2--2-2-0---2-2-2--2-2-5--2-2-2--2-2-0--2-2-2---8-8-8---|
C|--2-2-2--2-2-0---2-2-2--2-2-5--2-2-2--2-2-0--2-2-2---8-8-8---| (x2)


D|------------------------------------------------------      -------------|
A|------------------------------------------------------      -------------|
F|------------------------------------------------------      -------------|
C|------------------------------------------------------      -2------5/---|
G|------------------------------------------------------      -2------5/---|
C|--2-2-2-2-2-2-2-2-2-2-2-2-2-2-2-2-2-2-2-2-2-2-2-2-2--- (x2) -2------5/---|
   . . . . . . . . . . . . . . . . . . . . . . . . .

[Chorus]

D|-------------------------------------------------------------|
A|-------------------------------------------------------------|
F|-------------------------------------------------------------|
C|--2-2-2--2-2-0---2-2-2--2-2-5--2-2-2--2-2-0--2-2-2---8-8-8---|
G|--2-2-2--2-2-0---2-2-2--2-2-5--2-2-2--2-2-0--2-2-2---8-8-8---|
C|--2-2-2--2-2-0---2-2-2--2-2-5--2-2-2--2-2-0--2-2-2---8-8-8---| (x4)










4. From Here To The Hearse




[Intro] 

D|---------10--10--------------------5----5------------      ----------------------------|
A|--7--7------------7--x-----3---3--------------3--x---      --2-2-2-2-2-2-2-2-2-2-2-2---|
F|-----------------------------------------------------      ----------------------------|
C|-----------------------------------------------------      ----------------------------|
G|-----------------------------------------------------      ----------------------------|
C|----------------------------------------------------- (x5) ----------------------------|

D|--14-14h15-14h15-14--------14-14h15-14h15-14--------14-14h15-14h15-14--------------19--17-14--/---|
A|---------------------12-----------------------12-----------------------12-----12------------------|
F|--------------------------------------------------------------------------------------------------|
C|--------------------------------------------------------------------------------------------------|
G|--------------------------------------------------------------------------------------------------|
C|--------------------------------------------------------------------------------------------------|


[Verse] 

D|---------------------------------------------------------------------------------------------------|
A|---------------------------------------------------------------------------------------------------|
F|--4----4-4-4--------------4----4-4-4---------------4----4-4-4--------------------------------------|
C|--4----4-4-4-5-----5-5-5--4----4-4-4-5------5-5-5--4----4-4-4-5---5--5---4-4-4-4-4-4-4-4-4-4-4-4---|
G|--2----2-2-2-5-----5-5-5--2----2-2-2-5------5-5-5--2----2-2-2-5---5--5---4-4-4-4-4-4-4-4-4-4-4-4---|
C|-------------5-----5-5-5-------------5------5-5-5-------------5---5--5---4-4-4-4-4-4-4-4-4-4-4-4---|


D|--14-14h15-14h15-14--------14-14h15-14h15-14--------14-14h15-14h15-14--------------19--17-14--/---|
A|---------------------12-----------------------12-----------------------12-----12------------------|
F|--------------------------------------------------------------------------------------------------|
C|--------------------------------------------------------------------------------------------------|
G|--------------------------------------------------------------------------------------------------|
C|--------------------------------------------------------------------------------------------------|


[Pre-Chorus] 

D|------------------------------------------------------------------|
A|------------------------------------------------------------------|
F|-----------------------------------4---4---4-4-4--4--4-4--4-4-4---|
C|--2--2----0-2-2--2---2-2--0--2-2---4---4---4-4-4--4--4-4--4-4-4---|
G|--2--2----0-2-2--2---2-2--0--2-2---2---2---2-2-2--2--2-2--2-2-2---|
C|--2--2----0-2-2--2---2-2--0--2-2----------------------------------|


D|-------------------------------------------------------------|
A|-------------------------------------------------------------|
F|-------------------------------------------------------------|
C|--2--2----0-2-2--2---2-2--0--2-2---4-4-4-4-4-4-4-4-4-4-4-4---|
G|--2--2----0-2-2--2---2-2--0--2-2---4-4-4-4-4-4-4-4-4-4-4-4---|
C|--2--2----0-2-2--2---2-2--0--2-2---4-4-4-4-4-4-4-4-4-4-4-4---|


[Chorus] 

D|--14-14h15-14h15-14--------14-14h15-14h15-14--------14-14h15-14h15-14--------------19--17-14--/---|
A|---------------------12-----------------------12-----------------------12-----12------------------|
F|--------------------------------------------------------------------------------------------------|
C|--------------------------------------------------------------------------------------------------|
G|--------------------------------------------------------------------------------------------------|
C|--------------------------------------------------------------------------------------------------|


[Verse] 

D|---------10--10--------------------5----5------------      ----------------------------|
A|--7--7------------7--x-----3---3--------------3--x---      --2-2-2-2-2-2-2-2-2-2-2-2---|
F|-----------------------------------------------------      ----------------------------|
C|-----------------------------------------------------      ----------------------------|
G|-----------------------------------------------------      ----------------------------|
C|----------------------------------------------------- (x3) ----------------------------|


D|---------------------------------------------------------------------------------------------------|
A|---------------------------------------------------------------------------------------------------|
F|--4----4-4-4--------------4----4-4-4---------------4----4-4-4--------------------------------------|
C|--4----4-4-4-5-----5-5-5--4----4-4-4-5------5-5-5--4----4-4-4-5---5--5---4-4-4-4-4-4-4-4-4-4-4-4---|
G|--2----2-2-2-5-----5-5-5--2----2-2-2-5------5-5-5--2----2-2-2-5---5--5---4-4-4-4-4-4-4-4-4-4-4-4---|
C|-------------5-----5-5-5-------------5------5-5-5-------------5---5--5---4-4-4-4-4-4-4-4-4-4-4-4---|


D|--14-14h15-14h15-14--------14-14h15-14h15-14--------14-14h15-14h15-14--------------19--17-14--/---|
A|---------------------12-----------------------12-----------------------12-----12------------------|
F|--------------------------------------------------------------------------------------------------|
C|--------------------------------------------------------------------------------------------------|
G|--------------------------------------------------------------------------------------------------|
C|--------------------------------------------------------------------------------------------------|


[Pre-Chorus] 

D|------------------------------------------------------------------|
A|------------------------------------------------------------------|
F|-----------------------------------4---4---4-4-4--4--4-4--4-4-4---|
C|--2--2----0-2-2--2---2-2--0--2-2---4---4---4-4-4--4--4-4--4-4-4---|
G|--2--2----0-2-2--2---2-2--0--2-2---2---2---2-2-2--2--2-2--2-2-2---|
C|--2--2----0-2-2--2---2-2--0--2-2----------------------------------|


D|-------------------------------------------------------------|
A|-------------------------------------------------------------|
F|-------------------------------------------------------------|
C|--2--2----0-2-2--2---2-2--0--2-2---4-4-4-4-4-4-4-4-4-4-4-4---|
G|--2--2----0-2-2--2---2-2--0--2-2---4-4-4-4-4-4-4-4-4-4-4-4---|
C|--2--2----0-2-2--2---2-2--0--2-2---4-4-4-4-4-4-4-4-4-4-4-4---|


[Chorus] 

D|--14-14h15-14h15-14--------14-14h15-14h15-14--------14-14h15-14h15-14--------------19--17-14--/---|
A|---------------------12-----------------------12-----------------------12-----12------------------|
F|--------------------------------------------------------------------------------------------------|
C|--------------------------------------------------------------------------------------------------|
G|--------------------------------------------------------------------------------------------------|
C|--------------------------------------------------------------------------------------------------|


[Bridge] 

D|----------------------------------------------------------------------------------------|
A|----------------------------------------------------20-20-19-19-17-17-19--19--19--22b---|
F|--12-12-11-11-9-9-11----11--12-12-11-11-9-9---------------------------------------------|
C|---------------------------------------------9------------------------------------------|
G|----------------------------------------------------------------------------------------|
C|----------------------------------------------------------------------------------------|


[Pre-Chorus] 

D|------------------------------------------------------------------|
A|------------------------------------------------------------------|
F|-----------------------------------4---4---4-4-4--4--4-4--4-4-4---|
C|--2--2----0-2-2--2---2-2--0--2-2---4---4---4-4-4--4--4-4--4-4-4---|
G|--2--2----0-2-2--2---2-2--0--2-2---2---2---2-2-2--2--2-2--2-2-2---|
C|--2--2----0-2-2--2---2-2--0--2-2----------------------------------|


D|-------------------------------------------------------------|
A|-------------------------------------------------------------|
F|-------------------------------------------------------------|
C|--2--2----0-2-2--2---2-2--0--2-2---4-4-4-4-4-4-4-4-4-4-4-4---|
G|--2--2----0-2-2--2---2-2--0--2-2---4-4-4-4-4-4-4-4-4-4-4-4---|
C|--2--2----0-2-2--2---2-2--0--2-2---4-4-4-4-4-4-4-4-4-4-4-4---|


[Chorus] 

D|--14-14h15-14h15-14--------14-14h15-14h15-14--------14-14h15-14h15-14--------------19--17-14--/---|
A|---------------------12-----------------------12-----------------------12-----12------------------|
F|--------------------------------------------------------------------------------------------------|
C|--------------------------------------------------------------------------------------------------|
G|--------------------------------------------------------------------------------------------------|
C|--------------------------------------------------------------------------------------------------|


[Outro] 

D|---------10--10--------------------5----5------------|
A|--7--7------------7--x-----3---3--------------3--x---|
F|-----------------------------------------------------|
C|-----------------------------------------------------|
G|-----------------------------------------------------|
C|-----------------------------------------------------| (x2)


D|-----------------------------------------------------|
A|-----------------------------------------------------|
F|--/--4-------------------------------------------4---|
C|--/--4----5-----4-4-4-4-4-4-4-4-4-4-4-4-4-4-4----4---|
G|--/--2----5-----4-4-4-4-4-4-4-4-4-4-4-4-4-4-4----2---|
C|----------5-----4-4-4-4-4-4-4-4-4-4-4-4-4-4-4--------|









5. Put Your Death Mask On




[Intro] 

D|---------------------------------|
A|----------------------------4~---|
F|---------------------------------|
C|--6-5-0--0-0-000-0-0-0-0-0-------|
G|--6-5-0--0-0-000-0-0-0-0-0-------|
C|--6-5-0--0-0-000-0-0-0-0-0-------| (x2)


D|---------------------------------------------------------------------|
A|---------------------------------------------------------------------|
F|---------------------------------------------------------------------|
C|--6-5-0--0-0-000-0--6-5-0--0-0-000-0--6-5-0--0-0-000-0---0---0---0---|
G|--6-5-0--0-0-000-0--6-5-0--0-0-000-0--6-5-0--0-0-000-0---0---0---0---|
C|--6-5-0--0-0-000-0--6-5-0--0-0-000-0--6-5-0--0-0-000-0---0---0---0---|


D|---------------------------------|
A|----------------------------4~---|
F|---------------------------------|
C|--6-5-0--0-0-000-0-0-0-0-0-------|
G|--6-5-0--0-0-000-0-0-0-0-0-------|
C|--6-5-0--0-0-000-0-0-0-0-0-------| (x2)


D|-----------------------------------------------------------------------|
A|------------------------------------------------------------------4~---|
F|-----------------------------------------------------------------------|
C|--6-5-0--0-0-000-0--6-5-0--0-0-000-0--6-5-0--0-0-000-0---0-0-0-0-------|
G|--6-5-0--0-0-000-0--6-5-0--0-0-000-0--6-5-0--0-0-000-0---0-0-0-0-------|
C|--6-5-0--0-0-000-0--6-5-0--0-0-000-0--6-5-0--0-0-000-0---0-0-0-0-------|


[Verse] 

D|-------------------------------------------------------------|
A|-------------------------------------------------------------|
F|-------------------------------------------------------------|
C|--6-5-0--0-0-000-0-0-0-0-0-000--6-5-0--0-0-000-0-0-0-0-000---|
G|--6-5-0--0-0-000-0-0-0-0-0-000--6-5-0--0-0-000-0-0-0-0-000---|
C|--6-5-0--0-0-000-0-0-0-0-0-000--6-5-0--0-0-000-0-0-0-0-000---|


A|-------------------------------------------------------------------------|
F|-------------------------------------------------------------------------|
C|--6-5-0--0-0-000-0--6-5-0--0-0-000-0--6-5-0--0-0-000-0-0-0-0-0---0---0---|
G|--6-5-0--0-0-000-0--6-5-0--0-0-000-0--6-5-0--0-0-000-0-0-0-0-0---0---0---|
C|--6-5-0--0-0-000-0--6-5-0--0-0-000-0--6-5-0--0-0-000-0-0-0-0-0---0---0---|

|
D|---------------------------------|
A|----------------------------4~---|
F|---------------------------------|
C|--6-5-0--0-0-000-0-0-0-0-0-------|
G|--6-5-0--0-0-000-0-0-0-0-0-------|
C|--6-5-0--0-0-000-0-0-0-0-0-------| (x2)

D|-----------------------------------------------------------------------|
A|------------------------------------------------------------------4~---|
F|-----------------------------------------------------------------------|
C|--6-5-0--0-0-000-0--6-5-0--0-0-000-0--6-5-0--0-0-000-0---0-0-0-0-------|
G|--6-5-0--0-0-000-0--6-5-0--0-0-000-0--6-5-0--0-0-000-0---0-0-0-0-------|
C|--6-5-0--0-0-000-0--6-5-0--0-0-000-0--6-5-0--0-0-000-0---0-0-0-0-------|


[Pre-Chorus]

D|------------------------------------------------------------------|
A|------------------------------------------------------------------|
F|------------------------------------------------------------------|
C|--3-3-3-3-3-3-3---5-5--5-5-5--3-0---0-0-6--6-0-0--6--0-0-6--6/5---|
G|--3-3-3-3-3-3-3---5-5--5-5-5--3-0---0-0-6--6-0-0--6--0-0-6--6/5---|
C|--3-3-3-3-3-3-3---5-5--5-5-5--3-0---0-0-6--6-0-0--6--0-0-6--6/5---|
                                     . .      . .     . .

D|----------------------------------------------------------------|
A|----------------------------------------------------------------|
F|----------------------------------------------------------------|
C|--3-3-3-3-3-3-3-3--5-5-5-5-5-5-5-5--6-6-6-6-6-6-6-6--5-5-5--3---|
G|--3-3-3-3-3-3-3-3--5-5-5-5-5-5-5-5--6-6-6-6-6-6-6-6--5-5-5--3---|
C|--3-3-3-3-3-3-3-3--5-5-5-5-5-5-5-5--6-6-6-6-6-6-6-6--5-5-5--3---|


[Chorus] 

D|---------------------------------|
A|----------------------------4~---|
F|---------------------------------|
C|--6-5-0--0-0-000-0-0-0-0-0-------|
G|--6-5-0--0-0-000-0-0-0-0-0-------|
C|--6-5-0--0-0-000-0-0-0-0-0-------| (x2)


D|---------------------------------------------------------------------|
A|---------------------------------------------------------------------|
F|---------------------------------------------------------------------|
C|--6-5-0--0-0-000-0--6-5-0--0-0-000-0--6-5-0--0-0-000-0---0---0---0---|
G|--6-5-0--0-0-000-0--6-5-0--0-0-000-0--6-5-0--0-0-000-0---0---0---0---|
C|--6-5-0--0-0-000-0--6-5-0--0-0-000-0--6-5-0--0-0-000-0---0---0---0---|


[Verse] 

D|---------------------------------|
A|----------------------------4~---|
F|---------------------------------|
C|--6-5-0--0-0-000-0-0-0-0-0-------|
G|--6-5-0--0-0-000-0-0-0-0-0-------|
C|--6-5-0--0-0-000-0-0-0-0-0-------| (x2)


D|-----------------------------------------------------------------------|
A|------------------------------------------------------------------4~---|
F|-----------------------------------------------------------------------|
C|--6-5-0--0-0-000-0--6-5-0--0-0-000-0--6-5-0--0-0-000-0---0-0-0-0-------|
G|--6-5-0--0-0-000-0--6-5-0--0-0-000-0--6-5-0--0-0-000-0---0-0-0-0-------|
C|--6-5-0--0-0-000-0--6-5-0--0-0-000-0--6-5-0--0-0-000-0---0-0-0-0-------|


D|-------------------------------------------------------------|
A|-------------------------------------------------------------|
F|-------------------------------------------------------------|
C|--6-5-0--0-0-000-0-0-0-0-0-000--6-5-0--0-0-000-0-0-0-0-000---|
G|--6-5-0--0-0-000-0-0-0-0-0-000--6-5-0--0-0-000-0-0-0-0-000---|
C|--6-5-0--0-0-000-0-0-0-0-0-000--6-5-0--0-0-000-0-0-0-0-000---|


A|-------------------------------------------------------------------------|
F|-------------------------------------------------------------------------|
C|--6-5-0--0-0-000-0--6-5-0--0-0-000-0--6-5-0--0-0-000-0-0-0-0-0---0---0---|
G|--6-5-0--0-0-000-0--6-5-0--0-0-000-0--6-5-0--0-0-000-0-0-0-0-0---0---0---|
C|--6-5-0--0-0-000-0--6-5-0--0-0-000-0--6-5-0--0-0-000-0-0-0-0-0---0---0---|

|
D|---------------------------------|
A|----------------------------4~---|
F|---------------------------------|
C|--6-5-0--0-0-000-0-0-0-0-0-------|
G|--6-5-0--0-0-000-0-0-0-0-0-------|
C|--6-5-0--0-0-000-0-0-0-0-0-------| (x2)


D|-----------------------------------------------------------------------|
A|------------------------------------------------------------------4~---|
F|-----------------------------------------------------------------------|
C|--6-5-0--0-0-000-0--6-5-0--0-0-000-0--6-5-0--0-0-000-0---0-0-0-0-------|
G|--6-5-0--0-0-000-0--6-5-0--0-0-000-0--6-5-0--0-0-000-0---0-0-0-0-------|
C|--6-5-0--0-0-000-0--6-5-0--0-0-000-0--6-5-0--0-0-000-0---0-0-0-0-------|


[Pre-Chorus]

D|------------------------------------------------------------------|
A|------------------------------------------------------------------|
F|------------------------------------------------------------------|
C|--3-3-3-3-3-3-3---5-5--5-5-5--3-0---0-0-6--6-0-0--6--0-0-6--6/5---|
G|--3-3-3-3-3-3-3---5-5--5-5-5--3-0---0-0-6--6-0-0--6--0-0-6--6/5---|
C|--3-3-3-3-3-3-3---5-5--5-5-5--3-0---0-0-6--6-0-0--6--0-0-6--6/5---|
                                     . .      . .     . .

D|----------------------------------------------------------------|
A|----------------------------------------------------------------|
F|----------------------------------------------------------------|
C|--3-3-3-3-3-3-3-3--5-5-5-5-5-5-5-5--6-6-6-6-6-6-6-6--5-5-5--3---|
G|--3-3-3-3-3-3-3-3--5-5-5-5-5-5-5-5--6-6-6-6-6-6-6-6--5-5-5--3---|
C|--3-3-3-3-3-3-3-3--5-5-5-5-5-5-5-5--6-6-6-6-6-6-6-6--5-5-5--3---|


[Chorus] 

D|---------------------------------|
A|----------------------------4~---|
F|---------------------------------|
C|--6-5-0--0-0-000-0-0-0-0-0-------|
G|--6-5-0--0-0-000-0-0-0-0-0-------|
C|--6-5-0--0-0-000-0-0-0-0-0-------| (x2)


D|---------------------------------------------------------------------|
A|---------------------------------------------------------------------|
F|---------------------------------------------------------------------|
C|--6-5-0--0-0-000-0--6-5-0--0-0-000-0--6-5-0--0-0-000-0---0---0---0---|
G|--6-5-0--0-0-000-0--6-5-0--0-0-000-0--6-5-0--0-0-000-0---0---0---0---|
C|--6-5-0--0-0-000-0--6-5-0--0-0-000-0--6-5-0--0-0-000-0---0---0---0---|


[Verse 2] 

D|--------------------------------------------------------------------------|
A|--------------------------------------------------------------------------|
F|--------------------------------------------------------------------------|
C|--0--3-3-5-5--0-0-0-0-000-000-0-0-0-0--3-3-5-5--0-0-0-0-000-000-0-0-0-0---|
G|--0--3-3-5-5--0-0-0-0-000-000-0-0-0-0--3-3-5-5--0-0-0-0-000-000-0-0-0-0---|
C|--0--3-3-5-5--0-0-0-0-000-000-0-0-0-0--3-3-5-5--0-0-0-0-000-000-0-0-0-0---|


D|--------------------------------------------------------------------------------|
A|--------------------------------------------------------------------------------|
F|--------------------------------------------------------------------------------|
C|--3-3-5-5--0-0-0-0-000-000-0-0-0-0--3-3-5-5--0-0-0-0-000-000-0-0-0-0--3-3-5-5---|
G|--3-3-5-5--0-0-0-0-000-000-0-0-0-0--3-3-5-5--0-0-0-0-000-000-0-0-0-0--3-3-5-5---|
C|--3-3-5-5--0-0-0-0-000-000-0-0-0-0--3-3-5-5--0-0-0-0-000-000-0-0-0-0--3-3-5-5---|


[Pre-Chorus]

D|------------------------------------------------------------------|
A|------------------------------------------------------------------|
F|------------------------------------------------------------------|
C|--3-3-3-3-3-3-3---5-5--5-5-5--3-0---0-0-6--6-0-0--6--0-0-6--6/5---|
G|--3-3-3-3-3-3-3---5-5--5-5-5--3-0---0-0-6--6-0-0--6--0-0-6--6/5---|
C|--3-3-3-3-3-3-3---5-5--5-5-5--3-0---0-0-6--6-0-0--6--0-0-6--6/5---|
                                     . .      . .     . .

D|----------------------------------------------------------------|
A|----------------------------------------------------------------|
F|----------------------------------------------------------------|
C|--3-3-3-3-3-3-3-3--5-5-5-5-5-5-5-5--6-6-6-6-6-6-6-6--5-5-5--3---|
G|--3-3-3-3-3-3-3-3--5-5-5-5-5-5-5-5--6-6-6-6-6-6-6-6--5-5-5--3---|
C|--3-3-3-3-3-3-3-3--5-5-5-5-5-5-5-5--6-6-6-6-6-6-6-6--5-5-5--3---|


[Chorus] 

D|---------------------------------|
A|----------------------------4~---|
F|---------------------------------|
C|--6-5-0--0-0-000-0-0-0-0-0-------|
G|--6-5-0--0-0-000-0-0-0-0-0-------|
C|--6-5-0--0-0-000-0-0-0-0-0-------| (x2)


D|-----------------------------------------------------------------------|
A|-----------------------------------------------------------------------|
F|-----------------------------------------------------------------------|
C|--6-5-0--0-0-000-0--6-5-0--0-0-000-0--6-5-0--0-0-000-0-0---0---0---0---|
G|--6-5-0--0-0-000-0--6-5-0--0-0-000-0--6-5-0--0-0-000-0-0---0---0---0---|
C|--6-5-0--0-0-000-0--6-5-0--0-0-000-0--6-5-0--0-0-000-0-0---0---0---0---|


[Outro] (3 22) 

D|---------------------------------|
A|----------------------------4~---|
F|---------------------------------|
C|--6-5-0--0-0-000-0-0-0-0-0-------|
G|--6-5-0--0-0-000-0-0-0-0-0-------|
C|--6-5-0--0-0-000-0-0-0-0-0-------| (x2)


D|----------------------------------------------------------------------|
A|-----------------------------------------------------------------4~---|
F|----------------------------------------------------------------------|
C|--6-5-0--0-0-000-0--6-5-0--0-0-000-0--6-5-0--0-0-000-0-0-0-0-0--------|
G|--6-5-0--0-0-000-0--6-5-0--0-0-000-0--6-5-0--0-0-000-0-0-0-0-0--------|
C|--6-5-0--0-0-000-0--6-5-0--0-0-000-0--6-5-0--0-0-000-0-0-0-0-0--------|


D|------------------------------------------|
A|-------------------------------------4~---|
F|------------------------------------------|
C|--6-5-0--00--0-0-0-00--0-0-0-00-0---------|
G|--6-5-0--00--0-0-0-00--0-0-0-00-0---------|
C|--6-5-0--00--0-0-0-00--0-0-0-00-0---------| (x2)


D|------------------------------------------------------------------------------|
A|------------------------------------------------------------------------------|
F|------------------------------------------------------------------------------|
C|--6-5-0--00--0-0-0-00--6-5-0--00--0-0-0-00--6-5-0--00--0-0-0-00---0---0---0---|
G|--6-5-0--00--0-0-0-00--6-5-0--00--0-0-0-00--6-5-0--00--0-0-0-00---0---0---0---|
C|--6-5-0--00--0-0-0-00--6-5-0--00--0-0-0-00--6-5-0--00--0-0-0-00---0---0---0---|









6. Skeletons



[Intro] 

-Guitar 1.-
D|-----------------------------------------------       ------------|
A|--6--9-8-6---6--9-8-6---6--9-8-6---11--9-8-6---       --6~---6~---|
F|-----------------------------------------------       ------------|
C|-----------------------------------------------       ------------|
G|-----------------------------------------------       ------------|
C|----------------------------------------------- (x2)  ------------|


-Guitar 2.-
D|------------------------------------------------------      ----------------|
A|------------------------------------------------------      ----------------|
F|------------------------------------------------------      ----------------|
C|--3--3--3--3---6--6--6--6---1--1--1--1---8--8--8--8---      --3~---3~---/---|
G|--3--3--3--3---6--6--6--6---1--1--1--1---8--8--8--8---      --3~---3~---/---|
C|--3--3--3--3---6--6--6--6---1--1--1--1---8--8--8--8--- (x2) --3~---3~---/---|


[Verse] 

-Guitar 1.-
D|-----------------------------------------------       ------------|
A|--6--9-8-6---6--9-8-6---6--9-8-6---11--9-8-6---       --6~---6~---|
F|-----------------------------------------------       ------------|
C|-----------------------------------------------       ------------|
G|-----------------------------------------------       ------------|
C|----------------------------------------------- (x2)  ------------|


-Guitar 2.-
D|------------------------------------------------------      ----------------|
A|------------------------------------------------------      ----------------|
F|------------------------------------------------------      ----------------|
C|--3--3--3--3---6--6--6--6---1--1--1--1---8--8--8--8---      --3~---3~---/---|
G|--3--3--3--3---6--6--6--6---1--1--1--1---8--8--8--8---      --3~---3~---/---|
C|--3--3--3--3---6--6--6--6---1--1--1--1---8--8--8--8--- (x2) --3~---3~---/---|


[Pre-Chorus] 

D|------------------------------------------------------|
A|------------------------------------------------------|
F|------------------------------------------------------|
C|--6--6--6--6--6--6--8--8--8--8--8--8--8--8--3~---3~---|
G|--6--6--6--6--6--6--8--8--8--8--8--8--8--8--3~---3~---|
C|--6--6--6--6--6--6--8--8--8--8--8--8--8--8--3~---3~---|


D|---------------------------------------------------------------------------------------------|
A|---------------------------------------------------------------------------------------------|
F|---------------------------------------------------------------------------------------------|
C|--6--6--6--6--6--6--8--8--8--8--8--8--8--8--11--11--11--11--11--11--10--10--10--10--10--10---|
G|--6--6--6--6--6--6--8--8--8--8--8--8--8--8--11--11--11--11--11--11--10--10--10--10--10--10---|
C|--6--6--6--6--6--6--8--8--8--8--8--8--8--8--11--11--11--11--11--11--10--10--10--10--10--10---|


[Chorus] 

-Guitar 1.-
D|-----------------------------------------------       ------------|
A|--6--9-8-6---6--9-8-6---6--9-8-6---11--9-8-6---       --6~---6~---|
F|-----------------------------------------------       ------------|
C|-----------------------------------------------       ------------|
G|-----------------------------------------------       ------------|
C|----------------------------------------------- (x2)  ------------|


-Guitar 2.-
D|------------------------------------------------------      ----------------|
A|------------------------------------------------------      ----------------|
F|------------------------------------------------------      ----------------|
C|--3--3--3--3---6--6--6--6---1--1--1--1---8--8--8--8---      --3~---3~---/---|
G|--3--3--3--3---6--6--6--6---1--1--1--1---8--8--8--8---      --3~---3~---/---|
C|--3--3--3--3---6--6--6--6---1--1--1--1---8--8--8--8--- (x2) --3~---3~---/---|


[Verse] 


-Guitar 1.-
D|-----------------------------------------------       ------------|
A|--6--9-8-6---6--9-8-6---6--9-8-6---11--9-8-6---       --6~---6~---|
F|-----------------------------------------------       ------------|
C|-----------------------------------------------       ------------|
G|-----------------------------------------------       ------------|
C|----------------------------------------------- (x2)  ------------|


-Guitar 2.-
D|------------------------------------------------------      ----------------|
A|------------------------------------------------------      ----------------|
F|------------------------------------------------------      ----------------|
C|--3--3--3--3---6--6--6--6---1--1--1--1---8--8--8--8---      --3~---3~---/---|
G|--3--3--3--3---6--6--6--6---1--1--1--1---8--8--8--8---      --3~---3~---/---|
C|--3--3--3--3---6--6--6--6---1--1--1--1---8--8--8--8--- (x2) --3~---3~---/---|


[Pre-Chorus] 

D|------------------------------------------------------|
A|------------------------------------------------------|
F|------------------------------------------------------|
C|--6--6--6--6--6--6--8--8--8--8--8--8--8--8--3~---3~---|
G|--6--6--6--6--6--6--8--8--8--8--8--8--8--8--3~---3~---|
C|--6--6--6--6--6--6--8--8--8--8--8--8--8--8--3~---3~---|


D|---------------------------------------------------------------------------------------------|
A|---------------------------------------------------------------------------------------------|
F|---------------------------------------------------------------------------------------------|
C|--6--6--6--6--6--6--8--8--8--8--8--8--8--8--11--11--11--11--11--11--10--10--10--10--10--10---|
G|--6--6--6--6--6--6--8--8--8--8--8--8--8--8--11--11--11--11--11--11--10--10--10--10--10--10---|
C|--6--6--6--6--6--6--8--8--8--8--8--8--8--8--11--11--11--11--11--11--10--10--10--10--10--10---|

[Chorus] 

-Guitar 1.-

D|-----------------------------------------------|
A|--6--9-8-6---6--9-8-6---6--9-8-6---11--9-8-6---|
F|-----------------------------------------------|
C|-----------------------------------------------|
G|-----------------------------------------------|
C|-----------------------------------------------| (x2)


-Guitar 2.-
D|------------------------------------------------------|
A|------------------------------------------------------|
F|------------------------------------------------------|
C|--3--3--3--3---6--6--6--6---1--1--1--1---8--8--8--8---|
G|--3--3--3--3---6--6--6--6---1--1--1--1---8--8--8--8---|
C|--3--3--3--3---6--6--6--6---1--1--1--1---8--8--8--8---| (x2)


[Bridge] 

D|------------------------------------------------------------------------------|
A|------------------------------------------------------------------------------|
F|------------------------------------------------------------------------------|
C|--6~---1~---8~---3~---6~---8~--11-11-11-11-11-11-11-10-10-10-10-10-10-10-10---|
G|--6~---1~---8~---3~---6~---8~--11-11-11-11-11-11-11-10-10-10-10-10-10-10-10---|
C|--6~---1~---8~---3~---6~---8~--11-11-11-11-11-11-11-10-10-10-10-10-10-10-10---|


[Solo] 

D|---------------------------------------------------------------------------------------|
A|--6^--9~---11--11--11--9---11-9-8-6---9-9-9--4---9-9-9--4---4-4-4--2/3\2/3\2/3\2/3\2---|
F|---------------------------------------------------------------------------------------|
C|---------------------------------------------------------------------------------------|
G|---------------------------------------------------------------------------------------|
C|---------------------------------------------------------------------------------------|


[Pre-Chorus] 

D|------------------------------------------------------|
A|------------------------------------------------------|
F|------------------------------------------------------|
C|--6--6--6--6--6--6--8--8--8--8--8--8--8--8--3~---3~---|
G|--6--6--6--6--6--6--8--8--8--8--8--8--8--8--3~---3~---|
C|--6--6--6--6--6--6--8--8--8--8--8--8--8--8--3~---3~---|


D|---------------------------------------------------------------------------------------------|
A|---------------------------------------------------------------------------------------------|
F|---------------------------------------------------------------------------------------------|
C|--6--6--6--6--6--6--8--8--8--8--8--8--8--8--11--11--11--11--11--11--10--10--10--10--10--10---|
G|--6--6--6--6--6--6--8--8--8--8--8--8--8--8--11--11--11--11--11--11--10--10--10--10--10--10---|
C|--6--6--6--6--6--6--8--8--8--8--8--8--8--8--11--11--11--11--11--11--10--10--10--10--10--10---|


[Chorus] 

D|---------------------------------|
A|---------------------------------|
F|---------------------------------|
C|--3--3----6--6----1--1----8--8---|
G|--3--3----6--6----1--1----8--8---|
C|--3--3----6--6----1--1----8--8---|


-Guitar 1.-
D|-----------------------------------------------|
A|--6--9-8-6---6--9-8-6---6--9-8-6---11--9-8-6---|
F|-----------------------------------------------|
C|-----------------------------------------------|
G|-----------------------------------------------|
C|-----------------------------------------------| (x4)


-Guitar 2.-
D|------------------------------------------------------|
A|------------------------------------------------------|
F|------------------------------------------------------|
C|--3--3--3--3---6--6--6--6---1--1--1--1---8--8--8--8---|
G|--3--3--3--3---6--6--6--6---1--1--1--1---8--8--8--8---|
C|--3--3--3--3---6--6--6--6---1--1--1--1---8--8--8--8---| (x4)


[Outro] 

D|------------------------------------|
A|--6--9-8-6----9-8-6---9----8----6---|
F|------------------------------------|
C|------------------------------------|
G|------------------------------------|
C|------------------------------------|










7. My Demise



[Intro] 

D|--0---0--0--0-0-0--0-0--0---0--0--0-0-0--0-0-----------------------------------------------------|
A|--1---1--1--1-1-1--1-1--1---1--1--1-1-1--1-1-----------------------------------------------------|
F|--2---2--2--2-2-2--2-2--0---0--0--0-0-0--0-0-----------------------------------------------------|
C|--2---2--2--2-2-2--2-2--2---2--2--2-2-2--2-2---3---3--3--3-3-3--3/5--5-5--2---2--2--2-2-2--2-2---|
G|--0---0--0--0-0-0--0-0--3---3--3--3-3-3--3-3---3---3--3--3-3-3--3/5--5-5--2---2--2--2-2-2--2-2---|
C|-----------------------------------------------3---3--3--3-3-3--3/5--5-5--2---2--2--2-2-2--2-2---|


[Verse] 

D|--0---0--0--0-0-0--0-0--0---0--0--0-0-0--0-0-----------------------------------------------------|
A|--1---1--1--1-1-1--1-1--1---1--1--1-1-1--1-1-----------------------------------------------------|
F|--2---2--2--2-2-2--2-2--0---0--0--0-0-0--0-0-----------------------------------------------------|
C|--2---2--2--2-2-2--2-2--2---2--2--2-2-2--2-2---3---3--3--3-3-3--3/5--5-5--2---2--2--2-2-2--2-2---|
G|--0---0--0--0-0-0--0-0--3---3--3--3-3-3--3-3---3---3--3--3-3-3--3/5--5-5--2---2--2--2-2-2--2-2---|
C|-----------------------------------------------3---3--3--3-3-3--3/5--5-5--2---2--2--2-2-2--2-2---| (x2)


[Pre-Chorus] 

D|-----------------------------------------------------------------------------------|
A|-----------------------------------------------------------------------------------|
F|-----------------------------------------------------------------------------------|
C|--3---3--3--3-3-3--3/5--5-5--2---2--2--2-2-2--2-2---3---3--3--3-3-3--3/5--5-5--2---|
G|--3---3--3--3-3-3--3/5--5-5--2---2--2--2-2-2--2-2---3---3--3--3-3-3--3/5--5-5--2---|
C|--3---3--3--3-3-3--3/5--5-5--2---2--2--2-2-2--2-2---3---3--3--3-3-3--3/5--5-5--2---|


[Chorus] 

D|---------------------------------------------------------------------------------------------|
A|---------------------------------------------------------------------------------------------|
F|--/--5--5--5-5-5--5--5-5-------------------------5--5--5-5-5--5--5-5-------------------------|
C|--/--5--5--5-5-5--5--5-5---3--3--3-3-3--3--3-3---5--5--5-5-5--5--5-5---3--3--3-3-3--3--3-3---|
G|--/--3--3--3-3-3--3--3-3---3--3--3-3-3--3--3-3---3--3--3-3-3--3--3-3---3--3--3-3-3--3--3-3---|
C|---------------------------3--3--3-3-3--3--3-3-------------------------3--3--3-3-3--3--3-3---|


D|-----------------------------------------------------------------------------------------------|
A|-----------------------------------------------------------------------------------------------|
F|--5--5--5-5-5--5--5-5----------------------------------------------------5--5--5-5-5--5--5-5---|
C|--5--5--5-5-5--5--5-5---3--3--3-3-3--3--3-3---5---5---5-5--3---3---3-3---5--5--5-5-5--5--5-5---|
G|--3--3--3-3-3--3--3-3---3--3--3-3-3--3--3-3---5---5---5-5--3---3---3-3---3--3--3-3-3--3--3-3---|
C|------------------------3--3--3-3-3--3--3-3---5---5---5-5--3---3---3-3-------------------------|


D|--------------------------------------------------------|
A|--------------------------------------------------------|
F|--------------------------------------------------------|
C|--5---5---5-5--3---3---3-3--2--2--2--2--2--2--2--2--2---|
G|--5---5---5-5--3---3---3-3--2--2--2--2--2--2--2--2--2---|
C|--5---5---5-5--3---3---3-3--2--2--2--2--2--2--2--2--2---|


[Verse] 

D|--0---0--0--0-0-0--0-0--0---0--0--0-0-0--0-0-----------------------------------------------------|
A|--1---1--1--1-1-1--1-1--1---1--1--1-1-1--1-1-----------------------------------------------------|
F|--2---2--2--2-2-2--2-2--0---0--0--0-0-0--0-0-----------------------------------------------------|
C|--2---2--2--2-2-2--2-2--2---2--2--2-2-2--2-2---3---3--3--3-3-3--3/5--5-5--2---2--2--2-2-2--2-2---|
G|--0---0--0--0-0-0--0-0--3---3--3--3-3-3--3-3---3---3--3--3-3-3--3/5--5-5--2---2--2--2-2-2--2-2---|
C|-----------------------------------------------3---3--3--3-3-3--3/5--5-5--2---2--2--2-2-2--2-2---| (x2)


[Pre-Chorus] 

D|-----------------------------------------------------------------------------------|
A|-----------------------------------------------------------------------------------|
F|-----------------------------------------------------------------------------------|
C|--3---3--3--3-3-3--3/5--5-5--2---2--2--2-2-2--2-2---3---3--3--3-3-3--3/5--5-5--2---|
G|--3---3--3--3-3-3--3/5--5-5--2---2--2--2-2-2--2-2---3---3--3--3-3-3--3/5--5-5--2---|
C|--3---3--3--3-3-3--3/5--5-5--2---2--2--2-2-2--2-2---3---3--3--3-3-3--3/5--5-5--2---|


[Chorus] 

D|---------------------------------------------------------------------------------------------|
A|---------------------------------------------------------------------------------------------|
F|---5--5--5-5-5--5--5-5-------------------------5--5--5-5-5--5--5-5---------------------------|
C|---5--5--5-5-5--5--5-5---3--3--3-3-3--3--3-3---5--5--5-5-5--5--5-5---3--3--3-3-3--3--3-3-----|
G|---3--3--3-3-3--3--3-3---3--3--3-3-3--3--3-3---3--3--3-3-3--3--3-3---3--3--3-3-3--3--3-3-----|
C|-------------------------3--3--3-3-3--3--3-3-------------------------3--3--3-3-3--3--3-3-----|


D|-----------------------------------------------------------------------------------------------|
A|-----------------------------------------------------------------------------------------------|
F|--5--5--5-5-5--5--5-5----------------------------------------------------5--5--5-5-5--5--5-5---|
C|--5--5--5-5-5--5--5-5---3--3--3-3-3--3--3-3---5---5---5-5--3---3---3-3---5--5--5-5-5--5--5-5---|
G|--3--3--3-3-3--3--3-3---3--3--3-3-3--3--3-3---5---5---5-5--3---3---3-3---3--3--3-3-3--3--3-3---|
C|------------------------3--3--3-3-3--3--3-3---5---5---5-5--3---3---3-3-------------------------|


D|--------------------------------------------------------|
A|--------------------------------------------------------|
F|--------------------------------------------------------|
C|--5---5---5-5--3---3---3-3--2--2--2--2--2--2--2--2--2---|
G|--5---5---5-5--3---3---3-3--2--2--2--2--2--2--2--2--2---|
C|--5---5---5-5--3---3---3-3--2--2--2--2--2--2--2--2--2---|


[Bridge] 

D|---------------------------------------------------------------------------------------------|
A|---------------------------------------------------------------------------------------------|
F|---6--6--6-6-6--6--6-6-------------------------6--6--6-6-6--6--6-6---------------------------|
C|---6--6--6-6-6--6--6-6---4--4--4-4-4--4--4-4---6--6--6-6-6--6--6-6---4--4--4-4-4--4--4-4-----|
G|---4--4--4-4-4--4--4-4---4--4--4-4-4--4--4-4---4--4--4-4-4--4--4-4---4--4--4-4-4--4--4-4-----|
C|-------------------------4--4--4-4-4--4--4-4-------------------------4--4--4-4-4--4--4-4-----|


D|-----------------------------------------------------------------------|
A|-----------------------------------------------------------------------|
F|--6--6--6-6-6--6--6-6--------------------------------------------------|
C|--6--6--6-6-6--6--6-6---4--4--4-4---6---4--3--3--3--3--3--3--3--3--2---|
G|--4--4--4-4-4--4--4-4---4--4--4-4---6---4--3--3--3--3--3--3--3--3--2---|
C|------------------------4--4--4-4---6---4--3--3--3--3--3--3--3--3--2---|


[Chorus] 

D|---------------------------------------------------------------------------------------------|
A|---------------------------------------------------------------------------------------------|
F|---5--5--5-5-5--5--5-5-------------------------5--5--5-5-5--5--5-5---------------------------|
C|---5--5--5-5-5--5--5-5---3--3--3-3-3--3--3-3---5--5--5-5-5--5--5-5---3--3--3-3-3-3-3-3-3-3---|
G|---3--3--3-3-3--3--3-3---3--3--3-3-3--3--3-3---3--3--3-3-3--3--3-3---3--3--3-3-3-3-3-3-3-3---|
C|-------------------------3--3--3-3-3--3--3-3-------------------------3--3--3-3-3-3-3-3-3-3---|


D|---------------------------------------------------------------------------------------------|
A|---------------------------------------------------------------------------------------------|
F|---5--5--5-5-5--5--5-5-------------------------5--5--5-5-5--5--5-5---------------------------|
C|---5--5--5-5-5--5--5-5---3--3--3-3-3--3--3-3---5--5--5-5-5--5--5-5---3--3--3-3-3--3--3-3-----|
G|---3--3--3-3-3--3--3-3---3--3--3-3-3--3--3-3---3--3--3-3-3--3--3-3---3--3--3-3-3--3--3-3-----|
C|-------------------------3--3--3-3-3--3--3-3-------------------------3--3--3-3-3--3--3-3-----|


D|-----------------------------------------------------------------------------------------------|
A|-----------------------------------------------------------------------------------------------|
F|--5--5--5-5-5--5--5-5----------------------------------------------------5--5--5-5-5--5--5-5---|
C|--5--5--5-5-5--5--5-5---3--3--3-3-3--3--3-3---5---5---5-5--3---3---3-3---5--5--5-5-5--5--5-5---|
G|--3--3--3-3-3--3--3-3---3--3--3-3-3--3--3-3---5---5---5-5--3---3---3-3---3--3--3-3-3--3--3-3---|
C|------------------------3--3--3-3-3--3--3-3---5---5---5-5--3---3---3-3-------------------------|


D|-------------------------------------------------|
A|-------------------------------------------------|
F|-------------------------------------------------|
C|--5---5---5-5--3---3---3-3---2--2--2-2-2--2--2---|
G|--5---5---5-5--3---3---3-3---2--2--2-2-2--2--2---|
C|--5---5---5-5--3---3---3-3---2--2--2-2-2--2--2---| (x2)


D|-----------------------------------------------------------------|
A|-----------------------------------------------------------------|
F|-----------------------------------------------------------------|
C|--5---5---5-5--3---3---3-3---2-2-2-2-2-2-2-2-2-2-2-2-2-2-2-2-2---|
G|--5---5---5-5--3---3---3-3---2-2-2-2-2-2-2-2-2-2-2-2-2-2-2-2-2---|
C|--5---5---5-5--3---3---3-3---2-2-2-2-2-2-2-2-2-2-2-2-2-2-2-2-2---|


[Outro] 

D|---------------------------------------------------------------------------------------------|
A|---------------------------------------------------------------------------------------------|
F|---5--5--5-5-5--5--5-5-------------------------5--5--5-5-5--5--5-5---------------------------|
C|---5--5--5-5-5--5--5-5---3--3--3-3-3--3--3-3---5--5--5-5-5--5--5-5---3--3--3-3-3--3--3-3-----|
G|---3--3--3-3-3--3--3-3---3--3--3-3-3--3--3-3---3--3--3-3-3--3--3-3---3--3--3-3-3--3--3-3-----|
C|-------------------------3--3--3-3-3--3--3-3-------------------------3--3--3-3-3--3--3-3-----| (x2)










8. With Friends Like These




[Intro] 

D|------------------------------------------------------------|
A|------------------------------------------------------------|
F|------------3--3------------3--3------------3--3------------|
C|--3-3---6---3--3--3-3---6---3--3--3-3---6---3--3---8----6---|
G|--3-3---6---1--1--3-3---6---1--1--3-3---6---1--1---8----6---|
C|--3-3---6---------3-3---6---------3-3---6----------8----6---|


[Verse] 

D|-----------------------------------------------------------------|
A|-----------------------------------------------------------------|
F|------------3--3------------3--3------------3--3-----------------|
C|--3-3---6---3--3--3-3---6---3--3--3-3---6---3--3---8----6---3/---|
G|--3-3---6---1--1--3-3---6---1--1--3-3---6---1--1---8----6---3/---|
C|--3-3---6---------3-3---6---------3-3---6----------8----6---3/---|


D|------------------------------------------------------------------------------------|
A|------------------------------------------------------------------------------------|
F|---------------3--3------------3--3--------------------------3--3------------3--3---|
C|--/--3-3---6---3--3--3-3---6---3--3--3/---------/--3-3---6---3--3--3-3---6---3--3---|
G|--/--3-3---6---1--1--3-3---6---1--1--3/---------/--3-3---6---1--1--3-3---6---1--1---|
C|--/--3-3---6---------3-3---6---------3/---------/--3-3---6---------3-3---6----------|


[Pre-Chorus] 

D|--------------------------------------------------------------------|
A|--------------------------------------------------------------------|
F|---------------------------------------------3--3------------3--3---|
C|--5-5--5---5---5--8-8--8---8---8/--3-3---6---1--1--3-3---6---1--1---|
G|--5-5--5---5---5--8-8--8---8---8/--3-3---6---1--1--3-3---6---1--1---|
C|--5-5--5---5---5--8-8--8---8---8/--3-3---6---------3-3---6----------|


D|-----------------------------------------------------------------------|
A|-----------------------------------------------------------------------|
F|-----------------------------------------------------------------------|
C|--5-5--5---5---5--8-8--8---8---8--6-6--6---6---6--8-8--8---8---8---8---|
G|--5-5--5---5---5--8-8--8---8---8--6-6--6---6---6--8-8--8---8---8---8---|
C|--5-5--5---5---5--8-8--8---8---8--6-6--6---6---6--8-8--8---8---8---8---|


[Chorus] 

D|------------------------------------------------------------|
A|------------------------------------------------------------|
F|------------3--3------------3--3------------3--3------------|
C|--3-3---6---3--3--3-3---6---3--3--3-3---6---3--3---8----6---|
G|--3-3---6---1--1--3-3---6---1--1--3-3---6---1--1---8----6---|
C|--3-3---6---------3-3---6---------3-3---6----------8----6---| (x2)


[Verse] 

D|------------------------------------------------------------|
A|------------------------------------------------------------|
F|------------3--3------------3--3------------3--3------------|
C|--3-3---6---3--3--3-3---6---3--3--3-3---6---3--3---8----6---|
G|--3-3---6---1--1--3-3---6---1--1--3-3---6---1--1---8----6---|
C|--3-3---6---------3-3---6---------3-3---6----------8----6---|


D|-----------------------------------------------------------------|
A|-----------------------------------------------------------------|
F|------------3--3------------3--3------------3--3-----------------|
C|--3-3---6---3--3--3-3---6---3--3--3-3---6---3--3---8----6---3/---|
G|--3-3---6---1--1--3-3---6---1--1--3-3---6---1--1---8----6---3/---|
C|--3-3---6---------3-3---6---------3-3---6----------8----6---3/---|


D|------------------------------------------------------------------------------------|
A|------------------------------------------------------------------------------------|
F|---------------3--3------------3--3--------------------------3--3------------3--3---|
C|--/--3-3---6---3--3--3-3---6---3--3--3/---------/--3-3---6---3--3--3-3---6---3--3---|
G|--/--3-3---6---1--1--3-3---6---1--1--3/---------/--3-3---6---1--1--3-3---6---1--1---|
C|--/--3-3---6---------3-3---6---------3/---------/--3-3---6---------3-3---6----------|


[Pre-Chorus] 

D|--------------------------------------------------------------------|
A|--------------------------------------------------------------------|
F|---------------------------------------------3--3------------3--3---|
C|--5-5--5---5---5--8-8--8---8---8/--3-3---6---1--1--3-3---6---1--1---|
G|--5-5--5---5---5--8-8--8---8---8/--3-3---6---1--1--3-3---6---1--1---|
C|--5-5--5---5---5--8-8--8---8---8/--3-3---6---------3-3---6----------|


D|-----------------------------------------------------------------------|
A|-----------------------------------------------------------------------|
F|-----------------------------------------------------------------------|
C|--5-5--5---5---5--8-8--8---8---8--6-6--6---6---6--8-8--8---8---8---8---|
G|--5-5--5---5---5--8-8--8---8---8--6-6--6---6---6--8-8--8---8---8---8---|
C|--5-5--5---5---5--8-8--8---8---8--6-6--6---6---6--8-8--8---8---8---8---|


[Chorus] 

D|------------------------------------------------------------|
A|------------------------------------------------------------|
F|------------3--3------------3--3------------3--3------------|
C|--3-3---6---3--3--3-3---6---3--3--3-3---6---3--3---8----6---|
G|--3-3---6---1--1--3-3---6---1--1--3-3---6---1--1---8----6---|
C|--3-3---6---------3-3---6---------3-3---6----------8----6---| (x2)


[Bridge] 

D|----------------------------------------------------------|
A|----------------------------------------------------------|
F|-----------------------------------3--3------------3--3---|
C|--5-5-5-5---8-8-8-8---/--3-3---6---3--3--3-3---6---3--3---|
G|--5-5-5-5---8-8-8-8---/--3-3---6---1--1--3-3---6---1--1---|
C|--5-5-5-5---8-8-8-8---/--3-3---6---------3-3---6----------|


D|-----------------------------------------------------------------------|
A|-----------------------------------------------------------------------|
F|-----------------------------------------------------------------------|
C|--5-5-5-5---8-8-8-8--10-10-10-10-10-10-10-10-10-10-10-10-10-10-10-10---|
G|--5-5-5-5---8-8-8-8--10-10-10-10-10-10-10-10-10-10-10-10-10-10-10-10---|
C|--5-5-5-5---8-8-8-8--10-10-10-10-10-10-10-10-10-10-10-10-10-10-10-10---|


[Verse] 

D|------------------------------------------------------------|
A|------------------------------------------------------------|
F|------------3--3------------3--3------------3--3------------|
C|--3-3---6---3--3--3-3---6---3--3--3-3---6---3--3---8----6---|
G|--3-3---6---1--1--3-3---6---1--1--3-3---6---1--1---8----6---|
C|--3-3---6---------3-3---6---------3-3---6----------8----6---| (x2)


[Pre-Chorus] 

D|--------------------------------------------------------------------|
A|--------------------------------------------------------------------|
F|---------------------------------------------3--3------------3--3---|
C|--5-5--5---5---5--8-8--8---8---8/--3-3---6---1--1--3-3---6---1--1---|
G|--5-5--5---5---5--8-8--8---8---8/--3-3---6---1--1--3-3---6---1--1---|
C|--5-5--5---5---5--8-8--8---8---8/--3-3---6---------3-3---6----------|


D|-----------------------------------------------------------------------|
A|-----------------------------------------------------------------------|
F|-----------------------------------------------------------------------|
C|--5-5--5---5---5--8-8--8---8---8--6-6--6---6---6--8-8--8---8---8---8---|
G|--5-5--5---5---5--8-8--8---8---8--6-6--6---6---6--8-8--8---8---8---8---|
C|--5-5--5---5---5--8-8--8---8---8--6-6--6---6---6--8-8--8---8---8---8---|


[Chorus] 

D|------------------------------------------------------------|
A|------------------------------------------------------------|
F|------------3--3------------3--3------------3--3------------|
C|--3-3---6---3--3--3-3---6---3--3--3-3---6---3--3---8----6---|
G|--3-3---6---1--1--3-3---6---1--1--3-3---6---1--1---8----6---|
C|--3-3---6---------3-3---6---------3-3---6----------8----6---| (x2)


[Outro] 

D|-----------------------------------------------------------------------|
A|-----------------------------------------------------------------------|
F|------------3--3------------3--3------------3--3-----------------------|
C|--3-3---6---3--3--3-3---6---3--3--3-3---6---3--3---11-10-9-8-7-6---3---|
G|--3-3---6---1--1--3-3---6---1--1--3-3---6---1--1---11-10-9-8-7-6---3---|
C|--3-3---6---------3-3---6---------3-3---6----------11-10-9-8-7-6---3---|









9. No Rabbit In The Hat



[Intro] 

D|------------------------------------------------------------------------------------------|
A|------------------------------------------------------------------------------------------|
F|------------------------------------------------------------------------------------------|
C|------------------------------------------------------------------------------------------|
G|------------------------------------------------------------------------------------------|
C|--0-6-5-3-0-0---0--0-0-0-0-0----0-6-5-3-0-0---0--0-0-0-0-0---0-6-5-3-0-0---0--0-0-0-0-0---|

D|--------------------|
A|--------------------|
F|--------------------|
C|--------------------|
G|--------------------|
C|--0-6-5-3-0-0-3-0---|


[Verse] 

D|------------------------------------------------------------------------------------------|
A|------------------------------------------------------------------------------------------|
F|------------------------------------------------------------------------------------------|
C|--0-6-5-3-0-0---0--0-0-0-0-0----0-6-5-3-0-0---0--0-0-0-0-0---0-6-5-3-0-0---0--0-0-0-0-0---|
G|--0-6-5-3-0-0---0--0-0-0-0-0----0-6-5-3-0-0---0--0-0-0-0-0---0-6-5-3-0-0---0--0-0-0-0-0---|
C|--0-6-5-3-0-0---0--0-0-0-0-0----0-6-5-3-0-0---0--0-0-0-0-0---0-6-5-3-0-0---0--0-0-0-0-0---|


D|--------------------|
A|--------------------|
F|--------------------|
C|--0-6-5-3-0-0-3-0---|
G|--0-6-5-3-0-0-3-0---|
C|--0-6-5-3-0-0-3-0---|


D|------------------------------------------------------------------------------------------|
A|------------------------------------------------------------------------------------------|
F|------------------------------------------------------------------------------------------|
C|------------------------------------------------------------------------------------------|
G|------------------------------------------------------------------------------------------|
C|--0-6-5-3-0-0---0--0-0-0-0-0----0-6-5-3-0-0---0--0-0-0-0-0---0-6-5-3-0-0---0--0-0-0-0-0---|


D|-------------------------------|
A|-------------------------------|
F|-------------------------------|
C|-------------------------------|
G|-------------------------------|
C|--0-6-5-3-0-0---0--0-0-0-0-0---|


D|------------------------------------------------------------------------------------------|
A|------------------------------------------------------------------------------------------|
F|------------------------------------------------------------------------------------------|
C|--0-6-5-3-0-0---0--0-0-0-0-0----0-6-5-3-0-0---0--0-0-0-0-0---0-6-5-3-0-0---0--0-0-0-0-0---|
G|--0-6-5-3-0-0---0--0-0-0-0-0----0-6-5-3-0-0---0--0-0-0-0-0---0-6-5-3-0-0---0--0-0-0-0-0---|
C|--0-6-5-3-0-0---0--0-0-0-0-0----0-6-5-3-0-0---0--0-0-0-0-0---0-6-5-3-0-0---0--0-0-0-0-0---|


D|-------------------------------|
A|-------------------------------|
F|-------------------------------|
C|--0-6-5-3-0-0---0--0-0-0-0-0---|
G|--0-6-5-3-0-0---0--0-0-0-0-0---|
C|--0-6-5-3-0-0---0--0-0-0-0-0---|


[Pre-Chorus] 

D|-----------------------------------------------------------------------------------|
A|-----------------------------------------------------------------------------------|
F|-----------------------------------------------------------------------------------|
C|--3--3-3--3--3-3--3--3-3--3--3-3---5-5--5--5-5--5--5-5--5--5-5--5--0------0----0---|
G|--3--3-3--3--3-3--3--3-3--3--3-3---5-5--5--5-5--5--5-5--5--5-5--5--0------0----0---|
C|--3--3-3--3--3-3--3--3-3--3--3-3---5-5--5--5-5--5--5-5--5--5-5--5--0------0----0---|


D|-----------------------------------------------------------------|
A|-----------------------------------------------------------------|
F|-----------------------------------------------------------------|
C|--3--3-3--3--3-3--3--3-3--3--3-3---5-5--5--5-5--5--5-5-5-5-5-5---|
G|--3--3-3--3--3-3--3--3-3--3--3-3---5-5--5--5-5--5--5-5-5-5-5-5---|
C|--3--3-3--3--3-3--3--3-3--3--3-3---5-5--5--5-5--5--5-5-5-5-5-5---|
                                                    . . . . . .


[Chorus] 

D|------------------------------------------------------------------------------------------|
A|------------------------------------------------------------------------------------------|
F|------------------------------------------------------------------------------------------|
C|--0-6-5-3-0-0---0--0-0-0-0-0----0-6-5-3-0-0---0--0-0-0-0-0---0-6-5-3-0-0---0--0-0-0-0-0---|
G|--0-6-5-3-0-0---0--0-0-0-0-0----0-6-5-3-0-0---0--0-0-0-0-0---0-6-5-3-0-0---0--0-0-0-0-0---|
C|--0-6-5-3-0-0---0--0-0-0-0-0----0-6-5-3-0-0---0--0-0-0-0-0---0-6-5-3-0-0---0--0-0-0-0-0---|


D|--------------------|
A|--------------------|
F|--------------------|
C|--0-6-5-3-0-0-3-0---|
G|--0-6-5-3-0-0-3-0---|
C|--0-6-5-3-0-0-3-0---|


[Verse] 

D|------------------------------------------------------------------------------------------|
A|------------------------------------------------------------------------------------------|
F|------------------------------------------------------------------------------------------|
C|------------------------------------------------------------------------------------------|
G|------------------------------------------------------------------------------------------|
C|--0-6-5-3-0-0---0--0-0-0-0-0----0-6-5-3-0-0---0--0-0-0-0-0---0-6-5-3-0-0---0--0-0-0-0-0---|


D|-------------------------------|
A|-------------------------------|
F|-------------------------------|
C|-------------------------------|
G|-------------------------------|
C|--0-6-5-3-0-0---0--0-0-0-0-0---|


D|------------------------------------------------------------------------------------------|
A|------------------------------------------------------------------------------------------|
F|------------------------------------------------------------------------------------------|
C|--0-6-5-3-0-0---0--0-0-0-0-0----0-6-5-3-0-0---0--0-0-0-0-0---0-6-5-3-0-0---0--0-0-0-0-0---|
G|--0-6-5-3-0-0---0--0-0-0-0-0----0-6-5-3-0-0---0--0-0-0-0-0---0-6-5-3-0-0---0--0-0-0-0-0---|
C|--0-6-5-3-0-0---0--0-0-0-0-0----0-6-5-3-0-0---0--0-0-0-0-0---0-6-5-3-0-0---0--0-0-0-0-0---|


D|-------------------------------|
A|-------------------------------|
F|-------------------------------|
C|--0-6-5-3-0-0---0--0-0-0-0-0---|
G|--0-6-5-3-0-0---0--0-0-0-0-0---|
C|--0-6-5-3-0-0---0--0-0-0-0-0---|


[Pre-Chorus] 

D|-----------------------------------------------------------------------------------|
A|-----------------------------------------------------------------------------------|
F|-----------------------------------------------------------------------------------|
C|--3--3-3--3--3-3--3--3-3--3--3-3---5-5--5--5-5--5--5-5--5--5-5--5--0------0----0---|
G|--3--3-3--3--3-3--3--3-3--3--3-3---5-5--5--5-5--5--5-5--5--5-5--5--0------0----0---|
C|--3--3-3--3--3-3--3--3-3--3--3-3---5-5--5--5-5--5--5-5--5--5-5--5--0------0----0---|


D|-----------------------------------------------------------------|
A|-----------------------------------------------------------------|
F|-----------------------------------------------------------------|
C|--3--3-3--3--3-3--3--3-3--3--3-3---5-5--5--5-5--5--5-5-5-5-5-5---|
G|--3--3-3--3--3-3--3--3-3--3--3-3---5-5--5--5-5--5--5-5-5-5-5-5---|
C|--3--3-3--3--3-3--3--3-3--3--3-3---5-5--5--5-5--5--5-5-5-5-5-5---|
                                                    . . . . . .

[Chorus] 

D|------------------------------------------------------------------------------------------|
A|------------------------------------------------------------------------------------------|
F|------------------------------------------------------------------------------------------|
C|--0-6-5-3-0-0---0--0-0-0-0-0----0-6-5-3-0-0---0--0-0-0-0-0---0-6-5-3-0-0---0--0-0-0-0-0---|
G|--0-6-5-3-0-0---0--0-0-0-0-0----0-6-5-3-0-0---0--0-0-0-0-0---0-6-5-3-0-0---0--0-0-0-0-0---|
C|--0-6-5-3-0-0---0--0-0-0-0-0----0-6-5-3-0-0---0--0-0-0-0-0---0-6-5-3-0-0---0--0-0-0-0-0---|


D|-------------------------------|
A|-------------------------------|
F|-------------------------------|
C|--0-6-5-3-0-0---0--0-0-0-0-0---|
G|--0-6-5-3-0-0---0--0-0-0-0-0---|
C|--0-6-5-3-0-0---0--0-0-0-0-0---|


[Bridge] 

D|----------------------------------------------------------------------|
A|----------------------------------------------------------------------|
F|----------------------------------------------------------------------|
C|--0------3------5------0----/--0------3------5-----7--7--7--7--7--7---|
G|--0------3------5------0----/--0------3------5-----7--7--7--7--7--7---|
C|--0------3------5------0----/--0------3------5-----7--7--7--7--7--7---|


D|------------------------------------------------------------------------------------------|
A|------------------------------------------------------------------------------------------|
F|------------------------------------------------------------------------------------------|
C|--0-6-5-3-0-0---0--0-0-0-0-0----0-6-5-3-0-0---0--0-0-0-0-0---0-6-5-3-0-0---0--0-0-0-0-0---|
G|--0-6-5-3-0-0---0--0-0-0-0-0----0-6-5-3-0-0---0--0-0-0-0-0---0-6-5-3-0-0---0--0-0-0-0-0---|
C|--0-6-5-3-0-0---0--0-0-0-0-0----0-6-5-3-0-0---0--0-0-0-0-0---0-6-5-3-0-0---0--0-0-0-0-0---|


D|-------------------------------|
A|-------------------------------|
F|-------------------------------|
C|--0-6-5-3-0-0---0--0-0-0-0-0---|
G|--0-6-5-3-0-0---0--0-0-0-0-0---|
C|--0-6-5-3-0-0---0--0-0-0-0-0---|


[Pre-Chorus] 

D|-----------------------------------------------------------------------------------|
A|-----------------------------------------------------------------------------------|
F|-----------------------------------------------------------------------------------|
C|--3--3-3--3--3-3--3--3-3--3--3-3---5-5--5--5-5--5--5-5--5--5-5--5--0------0----0---|
G|--3--3-3--3--3-3--3--3-3--3--3-3---5-5--5--5-5--5--5-5--5--5-5--5--0------0----0---|
C|--3--3-3--3--3-3--3--3-3--3--3-3---5-5--5--5-5--5--5-5--5--5-5--5--0------0----0---|


D|-----------------------------------------------------------------|
A|-----------------------------------------------------------------|
F|-----------------------------------------------------------------|
C|--3--3-3--3--3-3--3--3-3--3--3-3---5-5--5--5-5--5--5-5-5-5-5-5---|
G|--3--3-3--3--3-3--3--3-3--3--3-3---5-5--5--5-5--5--5-5-5-5-5-5---|
C|--3--3-3--3--3-3--3--3-3--3--3-3---5-5--5--5-5--5--5-5-5-5-5-5---|
                                                    . . . . . .

[Chorus] 

D|------------------------------------------------------------------------------------------|
A|------------------------------------------------------------------------------------------|
F|------------------------------------------------------------------------------------------|
C|--0-6-5-3-0-0---0--0-0-0-0-0----0-6-5-3-0-0---0--0-0-0-0-0---0-6-5-3-0-0---0--0-0-0-0-0---|
G|--0-6-5-3-0-0---0--0-0-0-0-0----0-6-5-3-0-0---0--0-0-0-0-0---0-6-5-3-0-0---0--0-0-0-0-0---|
C|--0-6-5-3-0-0---0--0-0-0-0-0----0-6-5-3-0-0---0--0-0-0-0-0---0-6-5-3-0-0---0--0-0-0-0-0---|


D|-------------------------------|
A|-------------------------------|
F|-------------------------------|
C|--0-6-5-3-0-0---0--0-0-0-0-0---|
G|--0-6-5-3-0-0---0--0-0-0-0-0---|
C|--0-6-5-3-0-0---0--0-0-0-0-0---| (x2)


[Outro] 

D|---------------------------------------------------------------------------------------------|
A|---------------------------------------------------------------------------------------------|
F|---------------------------------------------------------------------------------------------|
C|--0-6-5-3-0----0-6-5-3-0----0-6-5-3-0----0-6-5-3-0----0-6-5-3-0----0-6-5-3-0----0-6-5-3-0----|
G|--0-6-5-3-0----0-6-5-3-0----0-6-5-3-0----0-6-5-3-0----0-6-5-3-0----0-6-5-3-0----0-6-5-3-0----|
C|--0-6-5-3-0----0-6-5-3-0----0-6-5-3-0----0-6-5-3-0----0-6-5-3-0----0-6-5-3-0----0-6-5-3-0----|


D|--------------------|
A|--------------------|
F|--------------------|
C|--0-6-5-3-0-0-3-0---|
G|--0-6-5-3-0-0-3-0---|
C|--0-6-5-3-0-0-3-0---|










10. All American Massacre



[Intro] 

D|------------------------------------------|
A|------------------------------------------|
F|------------------------------------------|
C|--/--0-2-0h2-0h2-0h2-0h2--0-2-0h2--5--5---|
G|--/--0-2-0h2-0h2-0h2-0h2--0-2-0h2--5--5---|
C|--/--0-2-0h2-0h2-0h2-0h2--0-2-0h2--5--5---| (x3)


D|--------------------------------------|
A|--------------------------------------|
F|--------------------------------------|
C|--0-2-0h2-0h2-0h2-0h2--0-2-0h2-0--2---|
G|--0-2-0h2-0h2-0h2-0h2--0-2-0h2-0--2---|
C|--0-2-0h2-0h2-0h2-0h2--0-2-0h2-0--2---|


[Verse] 

D|---------------------------------------|
A|---------------------------------------|
F|---------------------------------------|
C|--0-2-0h2-0h2-0h2-0h2--0-2-0h2--5--5---|
G|--0-2-0h2-0h2-0h2-0h2--0-2-0h2--5--5---|
C|--0-2-0h2-0h2-0h2-0h2--0-2-0h2--5--5---| (x4)


D|-------------------------------------------------------------------------------|
A|-------------------------------------------------------------------------------|
F|-------------------------------------------------------------------------------|
C|--7---7-7-7-7-7-7-7-7-7-7-7-7-7-7---0-2-0h2-0h2-0h2-0h2--0-2-0h2-0h2-0h2-0h2---|
G|--7---7-7-7-7-7-7-7-7-7-7-7-7-7-7---0-2-0h2-0h2-0h2-0h2--0-2-0h2-0h2-0h2-0h2---|
C|--7---7-7-7-7-7-7-7-7-7-7-7-7-7-7---0-2-0h2-0h2-0h2-0h2--0-2-0h2-0h2-0h2-0h2---|


[Pre-Chorus] 

D|----------------------------------------------------------------------|
A|----------------------------------------------------------------------|
F|----------------------------------------------------------------------|
C|--7---7-7-7-7-7-7-7-7-7-7-6-6-5-5--5-5-5-5-5-5-5-5--7-7-7-7-7-7-7-7---|
G|--7---7-7-7-7-7-7-7-7-7-7-6-6-5-5--5-5-5-5-5-5-5-5--7-7-7-7-7-7-7-7---|
C|--7---7-7-7-7-7-7-7-7-7-7-6-6-5-5--5-5-5-5-5-5-5-5--7-7-7-7-7-7-7-7---|


[Chorus] 

D|---------------------------------------|
A|---------------------------------------|
F|---------------------------------------|
C|--0-2-0h2-0h2-0h2-0h2--0-2-0h2--5--5---|
G|--0-2-0h2-0h2-0h2-0h2--0-2-0h2--5--5---|
C|--0-2-0h2-0h2-0h2-0h2--0-2-0h2--5--5---| (x3)

D|---------------------------------|
A|---------------------------------|
F|---------------------------------|
C|--0-2-0h2-0h2-0h2-0h2--0-2-0h2---|
G|--0-2-0h2-0h2-0h2-0h2--0-2-0h2---|
C|--0-2-0h2-0h2-0h2-0h2--0-2-0h2---|


[Verse] 

D|------------------------------------------|
A|------------------------------------------|
F|------------------------------------------|
C|--/--0-2-0h2-0h2-0h2-0h2--0-2-0h2--5--5---|
G|--/--0-2-0h2-0h2-0h2-0h2--0-2-0h2--5--5---|
C|--/--0-2-0h2-0h2-0h2-0h2--0-2-0h2--5--5---| (x4)


D|-------------------------------------------------------------------------------|
A|-------------------------------------------------------------------------------|
F|-------------------------------------------------------------------------------|
C|--7---7-7-7-7-7-7-7-7-7-7-7-7-7-7---0-2-0h2-0h2-0h2-0h2--0-2-0h2-0h2-0h2-0h2---|
G|--7---7-7-7-7-7-7-7-7-7-7-7-7-7-7---0-2-0h2-0h2-0h2-0h2--0-2-0h2-0h2-0h2-0h2---|
C|--7---7-7-7-7-7-7-7-7-7-7-7-7-7-7---0-2-0h2-0h2-0h2-0h2--0-2-0h2-0h2-0h2-0h2---|


[Pre-Chorus] 

D|----------------------------------------------------------------------|
A|----------------------------------------------------------------------|
F|----------------------------------------------------------------------|
C|--7---7-7-7-7-7-7-7-7-7-7-6-6-5-5--5-5-5-5-5-5-5-5--7-7-7-7-7-7-7-7---|
G|--7---7-7-7-7-7-7-7-7-7-7-6-6-5-5--5-5-5-5-5-5-5-5--7-7-7-7-7-7-7-7---|
C|--7---7-7-7-7-7-7-7-7-7-7-6-6-5-5--5-5-5-5-5-5-5-5--7-7-7-7-7-7-7-7---|


[Chorus] 

D|---------------------------------------|
A|---------------------------------------|
F|---------------------------------------|
C|--0-2-0h2-0h2-0h2-0h2--0-2-0h2--5--5---|
G|--0-2-0h2-0h2-0h2-0h2--0-2-0h2--5--5---|
C|--0-2-0h2-0h2-0h2-0h2--0-2-0h2--5--5---| (x3)

D|---------------------------------|
A|---------------------------------|
F|---------------------------------|
C|--0-2-0h2-0h2-0h2-0h2--0-2-0h2---|
G|--0-2-0h2-0h2-0h2-0h2--0-2-0h2---|
C|--0-2-0h2-0h2-0h2-0h2--0-2-0h2---|


[Solo] 

D|-------------------------------------------------------|
A|--/--8--7--5-5-5--5---5h6-8---8--7--5-5-5--5---5h6-8---|
F|-------------------------------------------------------|
C|-------------------------------------------------------|
G|-------------------------------------------------------|
C|-------------------------------------------------------|


D|--15--14--12-12-12--12---12h13-15----15--14--12-12-12--12---12h13-15~---|
A|------------------------------------------------------------------------|
F|------------------------------------------------------------------------|
C|------------------------------------------------------------------------|
G|------------------------------------------------------------------------|
C|------------------------------------------------------------------------|


[Pre-Chorus] 

D|-------------------------------------------------------------------------------|
A|-------------------------------------------------------------------------------|
F|-------------------------------------------------------------------------------|
C|--7---7-7-7-7-7-7-7-7-7-7-7-7-7-7---0-2-0h2-0h2-0h2-0h2--0-2-0h2-0h2-0h2-0h2---|
G|--7---7-7-7-7-7-7-7-7-7-7-7-7-7-7---0-2-0h2-0h2-0h2-0h2--0-2-0h2-0h2-0h2-0h2---|
C|--7---7-7-7-7-7-7-7-7-7-7-7-7-7-7---0-2-0h2-0h2-0h2-0h2--0-2-0h2-0h2-0h2-0h2---|


D|----------------------------------------------------------------------|
A|----------------------------------------------------------------------|
F|----------------------------------------------------------------------|
C|--7---7-7-7-7-7-7-7-7-7-7-6-6-5-5--5-5-5-5-5-5-5-5--7-7-7-7-7-7-7-7---|
G|--7---7-7-7-7-7-7-7-7-7-7-6-6-5-5--5-5-5-5-5-5-5-5--7-7-7-7-7-7-7-7---|
C|--7---7-7-7-7-7-7-7-7-7-7-6-6-5-5--5-5-5-5-5-5-5-5--7-7-7-7-7-7-7-7---|


[Chorus] 

D|---------------------------------------|
A|---------------------------------------|
F|---------------------------------------|
C|--0-2-0h2-0h2-0h2-0h2--0-2-0h2--5--5---|
G|--0-2-0h2-0h2-0h2-0h2--0-2-0h2--5--5---|
C|--0-2-0h2-0h2-0h2-0h2--0-2-0h2--5--5---| (x7)

D|---------------------------------|
A|---------------------------------|
F|---------------------------------|
C|--0-2-0h2-0h2-0h2-0h2--0-2-0h2---|
G|--0-2-0h2-0h2-0h2-0h2--0-2-0h2---|
C|--0-2-0h2-0h2-0h2-0h2--0-2-0h2---|






11. Dead Carolina




[Intro] 

D|-----------------------------------------------------------------------------------------------|
A|-----------------------------------------------------------------------------------------------|
F|--7--7-7--7--7-7--7-7--------------------------------------------------------------------------|
C|--7--7-7--7--7-7--7-7--7--7-7--7--7-7--7-7--8--8-8--8--8-8--8-8--10--10-10--10--10-10--10-10---|
G|--5--5-5--5--5-5--5-5--7--7-7--7--7-7--7-7--8--8-8--8--8-8--8-8--10--10-10--10--10-10--10-10---|
C|-----------------------7--7-7--7--7-7--7-7--8--8-8--8--8-8--8-8--10--10-10--10--10-10--10-10---|

D|----------------------------------------------------------------------------------|
A|----------------------------------------------------------------------------------|
F|--7--7-7--7--7-7--7-7-------------------------------------------------------------|
C|--7--7-7--7--7-7--7-7--7--7-7--7--7-7--7-7--8--8-8--8--8-8--8-8--10-10-10-10-10---|
G|--5--5-5--5--5-5--5-5--7--7-7--7--7-7--7-7--8--8-8--8--8-8--8-8--10-10-10-10-10---|
C|-----------------------7--7-7--7--7-7--7-7--8--8-8--8--8-8--8-8--10-10-10-10-10---|


[Verse] 

D|--------------------------------------------------------------------------------|
A|--10-6--10-5~---5-5-6----6-6-8b-8b-8b---10-6--10-5~---5-5-6----6/8--8-8-8-8-8---|
F|--------------------------------------------------------------------------------|
C|--------------------------------------------------------------------------------|
G|--------------------------------------------------------------------------------|
C|--------------------------------------------------------------------------------|


D|-----------------------------------------------------------------------|
A|-----------------------------------------------------------------------|
F|----------------7----------------7----------------7----------------7---|
C|--0-0-0-0-0000--7--0-0-0-0-0000--7--0-0-0-0-0000--7--0-0-0-0-0000--7---|
G|--0-0-0-0-0000--5--0-0-0-0-0000--5--0-0-0-0-0000--5--0-0-0-0-0000--5---|
C|--0-0-0-0-0000-----0-0-0-0-0000-----0-0-0-0-0000-----0-0-0-0-0000------|
   . . . . ....     . . . . ....     . . . . ....     . . . . ....

D|------------------------------------------------------------|
A|------------------------------------------------------------|
F|----------------7----------------7----------------7---7-7---|
C|--0-0-0-0-0000--7--0-0-0-0-0000--7--0-0-0-0-0000--7---7-7---|
G|--0-0-0-0-0000--5--0-0-0-0-0000--5--0-0-0-0-0000--5---5-5---|
C|--0-0-0-0-0000-----0-0-0-0-0000-----0-0-0-0-0000------------|
   . . . . ....     . . . . ....     . . . . ....


[Pre-Chorus] 

D|--------------------------------------------------------------------------------|
A|--10-6--10-5~---5-5-6----6-6-8b-8b-8b---10-6--10-5~---5-5-6----6/8--8b-8b-8b----|
F|--------------------------------------------------------------------------------|
C|--------------------------------------------------------------------------------|
G|--------------------------------------------------------------------------------|
C|--------------------------------------------------------------------------------|


[Chorus] 

D|-------------------------------------------------------------------|
A|-------------------------------------------------------------------|
F|-------------------------------------------------------------------|
C|--8-8-8-8--8-8-8--7-7-7-7--7-7-7--6-6-6-6--6-6-6--5-5-5-5--5-5-5---|
G|--8-8-8-8--8-8-8--7-7-7-7--7-7-7--6-6-6-6--6-6-6--5-5-5-5--5-5-5---|
C|--8-8-8-8--8-8-8--7-7-7-7--7-7-7--6-6-6-6--6-6-6--5-5-5-5--5-5-5---|


D|--------------------------------------------------------|
A|--------------------------------------------------------|
F|--------------------------------------------------------|
C|--8-8-8-8--8-8-8--7-7-7-7--7-7-7--6-6-6-6--6-6-6--5-5---|
G|--8-8-8-8--8-8-8--7-7-7-7--7-7-7--6-6-6-6--6-6-6--5-5---|
C|--8-8-8-8--8-8-8--7-7-7-7--7-7-7--6-6-6-6--6-6-6--5-5---|


[Verse] 

D|-----------------------------------------------------------------------|
A|-----------------------------------------------------------------------|
F|----------------7----------------7----------------7----------------7---|
C|--0-0-0-0-0000--7--0-0-0-0-0000--7--0-0-0-0-0000--7--0-0-0-0-0000--7---|
G|--0-0-0-0-0000--5--0-0-0-0-0000--5--0-0-0-0-0000--5--0-0-0-0-0000--5---|
C|--0-0-0-0-0000-----0-0-0-0-0000-----0-0-0-0-0000-----0-0-0-0-0000------|
   . . . . ....     . . . . ....     . . . . ....     . . . . ....

D|------------------------------------------------------------|
A|------------------------------------------------------------|
F|----------------7----------------7----------------7---7-7---|
C|--0-0-0-0-0000--7--0-0-0-0-0000--7--0-0-0-0-0000--7---7-7---|
G|--0-0-0-0-0000--5--0-0-0-0-0000--5--0-0-0-0-0000--5---5-5---|
C|--0-0-0-0-0000-----0-0-0-0-0000-----0-0-0-0-0000------------|
   . . . . ....     . . . . ....     . . . . ....

[Pre-Chorus] 

D|--------------------------------------------------------------------------------|
A|--10-6--10-5~---5-5-6----6-6-8b-8b-8b---10-6--10-5~---5-5-6----6/8--8b-8b-8b----|
F|--------------------------------------------------------------------------------|
C|--------------------------------------------------------------------------------|
G|--------------------------------------------------------------------------------|
C|--------------------------------------------------------------------------------|


[Chorus] 

D|-------------------------------------------------------------------|
A|-------------------------------------------------------------------|
F|-------------------------------------------------------------------|
C|--8-8-8-8--8-8-8--7-7-7-7--7-7-7--6-6-6-6--6-6-6--5-5-5-5--5-5-5---|
G|--8-8-8-8--8-8-8--7-7-7-7--7-7-7--6-6-6-6--6-6-6--5-5-5-5--5-5-5---|
C|--8-8-8-8--8-8-8--7-7-7-7--7-7-7--6-6-6-6--6-6-6--5-5-5-5--5-5-5---|


D|--------------------------------------------------------|
A|--------------------------------------------------------|
F|--------------------------------------------------------|
C|--8-8-8-8--8-8-8--7-7-7-7--7-7-7--6-6-6-6--6-6-6--5-5---|
G|--8-8-8-8--8-8-8--7-7-7-7--7-7-7--6-6-6-6--6-6-6--5-5---|
C|--8-8-8-8--8-8-8--7-7-7-7--7-7-7--6-6-6-6--6-6-6--5-5---|


[Solo] 

D|------------------------------------------------------------------------|
A|-------------------------------/15---15---15---15---15---15---15---15---|
F|--7---7---7---7---7---7---7---------------------------------------------|
C|------------------------------------------------------------------------|
G|------------------------------------------------------------------------|
C|------------------------------------------------------------------------|


D|-------17-16-15-14-13------17-16-15-14-13-------17-16-15-14-13-----------|
A|---15------------------15-------------------15-------------------15-15---|
F|-------------------------------------------------------------------------|
C|-------------------------------------------------------------------------|
G|-------------------------------------------------------------------------|
C|-------------------------------------------------------------------------|


[Chorus] 

D|-------------------------------------------------------------------|
A|-------------------------------------------------------------------|
F|-------------------------------------------------------------------|
C|--8-8-8-8--8-8-8--7-7-7-7--7-7-7--6-6-6-6--6-6-6--5-5-5-5--5-5-5---|
G|--8-8-8-8--8-8-8--7-7-7-7--7-7-7--6-6-6-6--6-6-6--5-5-5-5--5-5-5---|
C|--8-8-8-8--8-8-8--7-7-7-7--7-7-7--6-6-6-6--6-6-6--5-5-5-5--5-5-5---|


D|--------------------------------------------------------|
A|--------------------------------------------------------|
F|--------------------------------------------------------|
C|--8-8-8-8--8-8-8--7-7-7-7--7-7-7--6-6-6-6--6-6-6--5-5---|
G|--8-8-8-8--8-8-8--7-7-7-7--7-7-7--6-6-6-6--6-6-6--5-5---|
C|--8-8-8-8--8-8-8--7-7-7-7--7-7-7--6-6-6-6--6-6-6--5-5---| (x2)


[Outro] 

D|-----------------------------------------------------------------------|
A|-----------------------------------------------------------------------|
F|----------------7----------------7----------------7----------------7---|
C|--0-0-0-0-0000--7--0-0-0-0-0000--7--0-0-0-0-0000--7--0-0-0-0-0000--7---|
G|--0-0-0-0-0000--5--0-0-0-0-0000--5--0-0-0-0-0000--5--0-0-0-0-0000--5---|
C|--0-0-0-0-0000-----0-0-0-0-0000-----0-0-0-0-0000-----0-0-0-0-0000------|
   . . . . ....     . . . . ....     . . . . ....     . . . . ....

D|-----------------------------------------------------------------------|
A|-----------------------------------------------------------------------|
F|----------------7----------------7----------------7----------------7---|
C|--0-0-0-0-0000--7--0-0-0-0-0000--7--0-0-0-0-0000--7--0-0-0-0-0000--7---|
G|--0-0-0-0-0000--5--0-0-0-0-0000--5--0-0-0-0-0000--5--0-0-0-0-0000--5---|
C|--0-0-0-0-0000-----0-0-0-0-0000-----0-0-0-0-0000-----0-0-0-0-0000------|
   . . . . ....     . . . . ....     . . . . ....     . . . . ....

D|---------------------|
A|---------------------|
F|------------------7--|
C|--0-0-00-0-0-0-0--7--|
G|--0-0-00-0-0-0-0--5--|
C|--0-0-00-0-0-0-0-----|  (x10)
   . . .. . . . .



************************************

. - Mute
/ - Slide Up
\ - Slide Down
h - Hammer On
~ - Vibrate
b - Bend

************************************

            
            
Suggest correction
Creating personal tab
Creating personal tab
You can edit any tab online and save it as your Personal.

You can edit, replace or remove any tab part or add personal notes – all changes will be seen only by you.

Personal tabs can be accessed anytime from any device, even offline.
Learn more »
Give kudos to tab author, rate the tab!
1 2 3 4 5
comments
print report bad tab
guest
You may want to rate the tab now too:
select rating
Wanna post a correction for this tab? Suggest correction