Oops, an error
Loading. Please wait.

Alone tab

394 views 27 this week
no commentswrite comment
1 2 3 4 5
3 more votes to show rating
add to favorites
×
Save as Personal and add changes to this tab that will be seen only by you. Learn more ›
×
You can save this tab as Personal to edit and correct it or add notes. All changes will be seen only by you. Learn more »
launch autoscroll
font size
0
reset
how to read this tab
guitar tuner
edit
Autoscroll
slow
fast
+/-
esc
set tempo
stop
[Intro]
D|-----|-------------------------|-------------------------|-------------------------|----------------------|
A|-----|-------------------------|-------------------------|-------------------------|----------------------|
F|-----|-----------0-------------|-----------0-------------|-----------0-------------|-----------0----------|
C|-----|-----0----------0-----0--|-----0----------0-----0--|-----0----------0-----0--|-----0----------0-----|
G|-----|--------2----------2-----|--------2----------2-----|--------2----------2-----|--------2----------2--|
C|--0--|--5----------------------|--3----------------------|--2----------------------|--0-------------------|
    |     |     |    |     |        |     |    |     |        |     |    |     |        |     |    |     |

D|--------------------------|---------------------------|-------------------------|-----------------------|
A|--------------------------|---------------------------|-------------------------|-----------------------|
F|------------0-------------|-----------0---------------|-----------0-------------|-----------0-----------|
C|------0----------0-----0--|-----0----------0----------|-----0----------0-----0--|-----0----------0------|
G|-0h2-----2----------2-----|--0-----0----------0h2--0--|--------0----------0-----|--------0----------0---|
C|--------------------------|---------------------------|--5----------------------|--5--------------------|
   |       |    |     |        |     |    |      |         |     |    |     |        |     |    |     |

D|--------------------------|--------------------------|--------------------------|-----------------------|
A|--------------------------|--------------------------|--------------------------|-----------------------|
F|-----------0--------------|-----------0--------------|-----------0--------------|-----------0-----------|
C|-----0----------0-----0---|-----0----------0-----0---|-----0----------0-----0---|-----0----------0------|
G|--------2----------2------|--------2----------2------|--------2----------2------|--------2----------2---|
C|--5-----------------------|--3-----------------------|--2-----------------------|--0--------------------|
    |     |    |     |         |     |    |     |         |     |    |     |         |     |    |     |

D|--------------------------|---------------------------|-------------------------|-----------------------|
A|--------------------------|---------------------------|-------------------------|-----------------------|
F|------------0-------------|-----------0---------------|-----------0-------------|-----------0-----------|
C|------0----------0-----0--|-----0----------0----------|-----0----------0-----0--|-----0----------0------|
G|-0h2-----2----------2-----|--0-----0----------0h2--0--|--------0----------0-----|--------0----------0---|
C|--------------------------|---------------------------|--5----------------------|--5--------------------|
    |      |    |     |        |     |    |      |         |     |    |     |        |     |    |     |

D|----------------------|--------------------------------------------------|------------------------------|
A|----------------------|------------------------|-------------------------|------------------------------|
F|----------0-----------|----------0-------------|-----------0-------------|-----------0------------------|
C|-----4p0-------4p0----|-----0h2-------0h2p0----|-----0----------0-----0--|-----0----------0-------------|
G|--0-------------------|--3---------------------|--------0----------0-----|--------0----------0----------|
C|----------------------|------------------------|--5----------------------|--5---------------------------|
    |    |     |   |       |    |     |   |         |     |    |     |        |     |    |     |

D|----------------------|--------------------------------------------------|------------------------------|
A|----------------------|------------------------|-------------------------|------------------------------|
F|----------0-----------|----------0-------------|-----------0-------------|-----------0------------------|
C|-----4p0-------4p0----|-----0h2-------0h2p0----|-----0----------0-----0--|-----0----------0-------------|
G|--0-------------------|--3---------------------|--------0----------0-----|--------0----------0----------|
C|----------------------|------------------------|--5----------------------|--5---------------------------|
    |    |     |   |       |    |     |   |         |     |    |     |        |     |    |     |          

[Verse]
D|--------------------------|--------------------------|--------------------------|-----------------------|
A|--------------------------|--------------------------|--------------------------|-----------------------|
F|-----------0--------------|-----------0--------------|-----------0--------------|-----------0-----------|
C|-----0----------0-----0---|-----0----------0-----0---|-----0----------0-----0---|-----0----------0------|
G|--------2----------2------|--------2----------2------|--------2----------2------|--------2----------2---|
C|--5-----------------------|--3-----------------------|--2-----------------------|--0--------------------|
    |     |    |     |         |     |    |     |         |     |    |     |         |     |    |     |
   You                       don't                      know                         me,

D|--------------------------|---------------------------|-------------------------|-----------------------|
A|--------------------------|---------------------------|-------------------------|-----------------------|
F|------------0-------------|-----------0---------------|-----------0-------------|-----------0-----------|
C|------0----------0-----0--|-----0----------0----------|-----0----------0-----0--|-----0----------0------|
G|-0h2-----2----------2-----|--0-----0----------0h2--0--|--------0----------0-----|--------0----------0---|
C|--------------------------|---------------------------|--5----------------------|--5--------------------|
    |      |    |     |        |     |    |      |         |     |    |     |        |     |    |     |
  Leave                        me                a-       lone.

D|--------------------------|--------------------------|--------------------------|-----------------------|
A|--------------------------|--------------------------|--------------------------|-----------------------|
F|-----------0--------------|-----------0--------------|-----------0--------------|-----------0-----------|
C|-----0----------0-----0---|-----0----------0-----0---|-----0----------0-----0---|-----0----------0------|
G|--------2----------2------|--------2----------2------|--------2----------2------|--------2----------2---|
C|--5-----------------------|--3-----------------------|--2-----------------------|--0--------------------|
    |     |    |     |         |     |    |     |         |     |    |     |         |     |    |     |
   No                         one                        told                        me
 
D|--------------------------|---------------------------|-------------------------|-----------------------|
A|--------------------------|---------------------------|-------------------------|-----------------------|
F|------------0-------------|-----------0---------------|-----------0-------------|-----------0-----------|
C|------0----------0-----0--|-----0----------0----------|-----0----------0-----0--|-----0----------0------|
G|-0h2-----2----------2-----|--0-----0----------0h2--0--|--------0----------0-----|--------0----------0---|
C|--------------------------|---------------------------|--5----------------------|--5--------------------|
    |      |    |     |        |     |    |      |         |     |    |     |        |     |    |     |
   now               I'm       on                my       own.
   
[Chorus]
D|----------------------|--------------------------------------------------|------------------------------|
A|----------------------|------------------------|-------------------------|------------------------------|
F|----------0-----------|----------0-------------|-----------0-------------|-----------0------------------|
C|-----4p0-------4p0----|-----0h2-------0h2p0----|-----0----------0-----0--|-----0----------0-------------|
G|--0-------------------|--3---------------------|--------0----------0-----|--------0----------0----------|
C|----------------------|------------------------|--5----------------------|--5---------------------------|
    |    |     |   |       |    |     |   |         |     |    |     |        |     |    |     |
   It's                   all                     wrong,
   
D|----------------------|--------------------------------------------------|------------------------------|
A|----------------------|------------------------|-------------------------|------------------------------|
F|----------0-----------|----------0-------------|-----------0-------------|-----------0------------------|
C|-----4p0-------4p0----|-----0h2-------0h2p0----|-----0----------0-----0--|-----0----------0-------------|
G|--0-------------------|--3---------------------|--------0----------0-----|--------0----------0----------|
C|----------------------|------------------------|--5----------------------|--5---------------------------|
    |    |     |   |       |    |     |   |         |     |    |     |        |     |    |     |          
   too                   head-                   -strong

[Verse]
D|--------------------------|--------------------------|--------------------------|-----------------------|
A|--------------------------|--------------------------|--------------------------|-----------------------|
F|-----------0--------------|-----------0--------------|-----------0--------------|-----------0-----------|
C|-----0----------0-----0---|-----0----------0-----0---|-----0----------0-----0---|-----0----------0------|
G|--------2----------2------|--------2----------2------|--------2----------2------|--------2----------2---|
C|--5-----------------------|--3-----------------------|--2-----------------------|--0--------------------|
    |     |    |     |         |     |    |     |         |     |    |     |         |     |    |     |
   You                       won't                       see                        me,

D|--------------------------|---------------------------|-------------------------|-----------------------|
A|--------------------------|---------------------------|-------------------------|-----------------------|
F|------------0-------------|-----------0---------------|-----------0-------------|-----------0-----------|
C|------0----------0-----0--|-----0----------0----------|-----0----------0-----0--|-----0----------0------|
G|-0h2-----2----------2-----|--0-----0----------0h2--0--|--------0----------0-----|--------0----------0---|
C|--------------------------|---------------------------|--5----------------------|--5--------------------|
    |      |    |     |        |     |    |      |         |     |    |     |        |     |    |     |
   I'm                        long                       gone.

D|--------------------------|--------------------------|--------------------------|-----------------------|
A|--------------------------|--------------------------|--------------------------|-----------------------|
F|-----------0--------------|-----------0--------------|-----------0--------------|-----------0-----------|
C|-----0----------0-----0---|-----0----------0-----0---|-----0----------0-----0---|-----0----------0------|
G|--------2----------2------|--------2----------2------|--------2----------2------|--------2----------2---|
C|--5-----------------------|--3-----------------------|--2-----------------------|--0--------------------|
    |     |    |     |         |     |    |     |         |     |    |     |         |     |    |     |
   No                         one                        told                        me
 
D|--------------------------|---------------------------|-------------------------|-----------------------|
A|--------------------------|---------------------------|-------------------------|-----------------------|
F|------------0-------------|-----------0---------------|-------------------------|-----------------------|
C|------0----------0-----0--|-----0----------0----------|-------------------------|-----------------------|
G|-0h2-----2----------2-----|--0-----0----------0h2--0--|-------------------------|-----------------------|
C|--------------------------|---------------------------|--5----------------------|-----------------------|
    |      |    |     |        |     |    |      |         |     
   now               I'm       on                my       own.
   

************************************

| h   Hammer-on
| p   Pull-off

************************************

            
            
Suggest correction
Creating personal tab
Creating personal tab
You can edit any tab online and save it as your Personal.

You can edit, replace or remove any tab part or add personal notes – all changes will be seen only by you.

Personal tabs can be accessed anytime from any device, even offline.
Learn more »
Give kudos to tab author, rate the tab!
1 2 3 4 5
comments
print report bad tab
guest
You may want to rate the tab now too:
select rating
Wanna post a correction for this tab? Suggest correction