Oops, an error
Loading. Please wait.

Shes Your Baby tab

version 2
version 2

Whole song

by Ween
3,353 views 30 this week
3 commentsread comments
1 2 3 4 5
x 7
add to favorites
×
Save as Personal and add changes to this tab that will be seen only by you. Learn more ›
×
You can save this tab as Personal to edit and correct it or add notes. All changes will be seen only by you. Learn more »
launch autoscroll
font size
0
reset
how to read this tab
guitar tuner
edit
Autoscroll
slow
fast
+/-
esc
set tempo
stop
Author
-------------------------------------------------------------------------------
                             SHE'S YOUR BABY - Ween
-------------------------------------------------------------------------------
Tabbed by: Russ Pinkston

Tuning: Standard


This is such a beautiful song with so many little nuances that I couldn't resist tabbing it out.
It deserves more than just chord strumming.
I gave the 'up strokes' a caret (^) above each line of tablature to help.
Sorry if it's a bit cramped - I had to fit it all.

It's really not as complicated as it may look on paper. Have fun with it.  [Thanks Deaner.]


VERSE:

     G ^   ^ D/F# ^   ^ Em   ^               F   ^   ^       ^    C   ^   ^       ^
e|---3-3-3-3----2-2-2-2----0-0-------------|---1-1-1-1-----1-1------0-0-0-0-----0-0----|
B|---0-0-0-0----3-3-3-3----0-0-----0-------|---1-1-1-1-----1-1------1-1-1-1-----1-1----|
G|---0-0-0-0----2-2-2-2----0-0-----0-------|---2-2-2-2-0h2-2-2-0----0-0-0-0-----0-0----|
D|-0---------0----------2------0h2---0--2--|-3----------------------2-2-2-2-0h2-2-2-0--|
A|-2---------0----------2------------------|-3--------------------3--------------------|
E|-3---------2----------0------------------|-1-----------------------------------------|

   Janey came back from the stand            Smi------------------ling.


     G ^   ^ D/F# ^   ^ Em   ^               F   ^   ^       ^    C   ^   ^     ^
e|---3-3-3-3----2-2-2-2----0-0-------------|---1-1-1-1-----1-1------0-0-0-0---0-0------|
B|---0-0-0-0----3-3-3-3----0-0-----0-------|---1-1-1-1-----1-1------1-1-1-1---1-1------|
G|---0-0-0-0----2-2-2-2----0-0-----0-------|---2-2-2-2-0h2-2-2-0----0-0-0-0---0-0------|
D|-0---------0----------2------0h2---0--2--|-3----------------------2-2-2-2---2-2------|
A|-2---------0----------2------------------|-3--------------------3---------3------2--0|
E|-3---------2----------0------------------|-1-----------------------------------------|

   With the writing of Kafka in hand         And a bunny------ in a can.


  Am ^   ^       ^   D   ^   ^     ^   ^ G   ^   ^ F   ^   ^ C   ^   ^     ^
e|-0-0-0-0-----0-0-----2-2-2-2---2-2-2-2---3-3-3-3---1-1-1-1---0-0-0-0---0-0-----|
B|-1-1-1-1-----1-1-----3-3-3-3---3-3-3-3---0-0-0-0---1-1-1-1---1-1-1-1---1-1-----|
G|-2-2-2-2-0h2-2-2-0---2-2-2-2---2-2-2-2---0-0-0-0---2-2-2-2---0-0-0-0---0-0-----|
D|-2-2-2-2-----------0---------0---------0---------3-----------2-2-2-2---2-2-----|
A|---------------------------------------2---------3---------3---------3-----2-0-|
E|---------------------------------------3---------1-----------------------------|

   Slipping and sliding, you feel yourself asking, "Why would you want me to try?"


  Am ^   ^       ^   D   ^   ^     ^  
e|-0-0-0-0-----0-0-----2-2-2-2---2-2-----|
B|-1-1-1-1-----1-1-----3-3-3-3---3-3-----|
G|-2-2-2-2-0h2-2-2-0---2-2-2-2---2-2-----|
D|-2-2-2-2-----------0---------0---------|  x2
A|-----------------------------------2-0-|
E|---------------------------------------|

    Squeezing your wrist and she's pulling you closer
    Down where the devils are dying with laughter


  Am ^   ^        ^   D   ^   ^     ^   ^ G   ^   ^ F   ^   ^ C   ^   ^     ^
e|-0-0-0-0------0-0-----2-2-2-2---2-2-2-2---3-3-3-3---1-1-1-1---0-0-0-0---0-0-------|
B|-1-1-1-1------1-1-----3-3-3-3---3-3-3-3---0-0-0-0---1-1-1-1---1-1-1-1---1-1-------|
G|-2-2-2-2-0h2--2-2-0---2-2-2-2---2-2-2-2---0-0-0-0---2-2-2-2---0-0-0-0---0-0-------|
D|-2-2-2-2------------0---------0---------0---------3-----------2-2-2-2---2-2-------|
A|----------------------------------------2---------3---------3---------3-----------|
E|----------------------------------------3---------1-------------------------------|

   Led to a place where there's no form of pleasure, She blows you a kiss from her lips.


CHORUS:

   D   ^   ^     ^   ^ C   ^   ^     ^   ^
e|---2-2-2-2---2-2-2-2---0-0-0-0---0-0-0-0--|
B|---3-3-3-3-3-3-3-3-3---1-1-1-1---1-1-1-1--|
G|-2-2-2-2-2-2-2-2-2-2---0-0-0-0-0-0-0-0-0--|
D|-0-------------------2---------2----------|  x3
A|---------------------3--------------------|
E|------------------------------------------|

   She's your ba------------by


   G   ^   ^   
e|---3-3-3-3----|
B|---0-0-0-0----|
G|---0-0-0-0----|
D|-0------------|  x4
A|-2------------|
E|-3------------|



Those below us cannot be renounced, 'Cause they're talking.
And for once I wish they'd shut up their mouths, Lock their doors and stay in the house.

And while you're inside there, you might wanna question the fact that you're not quite the same.
And look to the room where she's keeping so quiet
A million layers of crust and deposit
Blanket the seasons and bury the reasons you told her that this was for good.

She's your baby.
She's your baby.
She's your baby.


SOLO:

e|-----------------------------------------------------12-------9h10p9------------------|

B|--------------------------------------------------------10-12--------10-12------------|

G|-------14--11br-9----------------------------------------------------------7/9--------|

D|----12---------------11h12-----9h11p9-7---7/11----------------------------------------|
A|-12-------------------------------------9---------------------------------------------|
E|--------------------------------------------------------------------------------------|

e|--------------------------------------------------------------------------------------|

B|--------------------------------------------------------------------------------------|

G|--9h11p9-7-------7h9p7-6----------------------------9----7----5------7----7--5--3--2--|

D|-------------------------------9br--7---7--9--7-----10---9----7------8----8--7--5--3--|

A|--------------------------------------9-----------------------------------------------|

E|--------------------------------------------------------------------------------------|

e|---------------------------------------------------------------------------------3----|
B|---------------------------------------------------------------------------------0----|

G|--9----7----5------7----7--5--3--2---------11~~-12~~-11h12p11~~-12~~-11~~-12~~---0----|
D|--10---9----7------8----8--7--5--3---------12---10---12---------10---12---10-----0----|
A|---------------------------------------------------------------------------------2----|
E|---------------------------------------------------------------------------------3----|



| /  slide up
| \  slide down
| h  hammer-on
| p  pull-off
| ~  vibrato
| +  harmonic
| x  Mute note
===============================================================================

            
            
Suggest correction
Creating personal tab
Creating personal tab
You can edit any tab online and save it as your Personal.

You can edit, replace or remove any tab part or add personal notes – all changes will be seen only by you.

Personal tabs can be accessed anytime from any device, even offline.
Learn more »
comments
print report bad tab
3 comments total.
0 reply
TDuck 113 Nov 07, 2009 05:43 AM

Fantastic. You only need to tab out the part that plays during the solo.

0 reply
russpinkston 163 Dec 28, 2011 09:13 AM

Just incase anyone is not aware: the 2-0 at the end of the "bunny in a can" line should be played on the A string rather than the D string. Just a typo on my part. All apologies.

0 reply
russpinkston 163 Apr 28, 2012 05:04 PM

I fixed the typo. The tab should be correct now.

guest
You may want to rate the tab now too:
select rating
Wanna post a correction for this tab? Suggest correction